  0
SECTION
  2
HEADER
  9
$ACADVER
  1
AC1015
  9
$ACADMAINTVER
 70
    20
  9
$DWGCODEPAGE
  3
ANSI_932
  9
$INSBASE
 10
0.0
 20
0.0
 30
0.0
  9
$EXTMIN
 10
-900.0549274497375
 20
-1344.300590265625
 30
-0.0015258207003583
  9
$EXTMAX
 10
900.0549358316403
 20
1331.867842570083
 30
0.0000000349246037
  9
$LIMMIN
 10
0.0
 20
0.0
  9
$LIMMAX
 10
0.0
 20
0.0
  9
$ORTHOMODE
 70
     0
  9
$REGENMODE
 70
     1
  9
$FILLMODE
 70
     1
  9
$QTEXTMODE
 70
     0
  9
$MIRRTEXT
 70
     1
  9
$LTSCALE
 40
50.8
  9
$ATTMODE
 70
     1
  9
$TEXTSIZE
 40
0.0
  9
$TRACEWID
 40
1.0
  9
$TEXTSTYLE
  7
STANDARD
  9
$CLAYER
  8
DATA
  9
$CELTYPE
  6
ByLayer
  9
$CECOLOR
 62
   256
  9
$CELTSCALE
 40
1.0
  9
$DISPSILH
 70
     0
  9
$DIMSCALE
 40
1.0
  9
$DIMASZ
 40
0.18
  9
$DIMEXO
 40
0.0625
  9
$DIMDLI
 40
0.38
  9
$DIMRND
 40
0.0
  9
$DIMDLE
 40
0.0
  9
$DIMEXE
 40
0.18
  9
$DIMTP
 40
0.0
  9
$DIMTM
 40
0.0
  9
$DIMTXT
 40
0.18
  9
$DIMCEN
 40
0.09
  9
$DIMTSZ
 40
0.0
  9
$DIMTOL
 70
     0
  9
$DIMLIM
 70
     0
  9
$DIMTIH
 70
     1
  9
$DIMTOH
 70
     1
  9
$DIMSE1
 70
     0
  9
$DIMSE2
 70
     0
  9
$DIMTAD
 70
     0
  9
$DIMZIN
 70
     0
  9
$DIMBLK
  1

  9
$DIMASO
 70
     1
  9
$DIMSHO
 70
     1
  9
$DIMPOST
  1

  9
$DIMAPOST
  1

  9
$DIMALT
 70
     0
  9
$DIMALTD
 70
     2
  9
$DIMALTF
 40
25.4
  9
$DIMLFAC
 40
1.0
  9
$DIMTOFL
 70
     0
  9
$DIMTVP
 40
0.0
  9
$DIMTIX
 70
     0
  9
$DIMSOXD
 70
     0
  9
$DIMSAH
 70
     0
  9
$DIMBLK1
  1

  9
$DIMBLK2
  1

  9
$DIMSTYLE
  2
STANDARD
  9
$DIMCLRD
 70
     0
  9
$DIMCLRE
 70
     0
  9
$DIMCLRT
 70
     0
  9
$DIMTFAC
 40
1.0
  9
$DIMGAP
 40
0.09
  9
$DIMJUST
 70
     0
  9
$DIMSD1
 70
     0
  9
$DIMSD2
 70
     0
  9
$DIMTOLJ
 70
     1
  9
$DIMTZIN
 70
     0
  9
$DIMALTZ
 70
     0
  9
$DIMALTTZ
 70
     0
  9
$DIMUPT
 70
     0
  9
$DIMDEC
 70
     4
  9
$DIMTDEC
 70
     4
  9
$DIMALTU
 70
     2
  9
$DIMALTTD
 70
     2
  9
$DIMTXSTY
  7
STANDARD
  9
$DIMAUNIT
 70
     0
  9
$DIMADEC
 70
     0
  9
$DIMALTRND
 40
0.0
  9
$DIMAZIN
 70
     0
  9
$DIMDSEP
 70
    46
  9
$DIMATFIT
 70
     3
  9
$DIMFRAC
 70
     0
  9
$DIMLDRBLK
  1

  9
$DIMLUNIT
 70
     2
  9
$DIMLWD
 70
    -2
  9
$DIMLWE
 70
    -2
  9
$DIMTMOVE
 70
     0
  9
$LUNITS
 70
     2
  9
$LUPREC
 70
     4
  9
$SKETCHINC
 40
0.1
  9
$FILLETRAD
 40
0.0
  9
$AUNITS
 70
     0
  9
$AUPREC
 70
     0
  9
$MENU
  1
acad
  9
$ELEVATION
 40
0.0
  9
$PELEVATION
 40
0.0
  9
$THICKNESS
 40
0.0
  9
$LIMCHECK
 70
     0
  9
$CHAMFERA
 40
0.0
  9
$CHAMFERB
 40
0.0
  9
$CHAMFERC
 40
0.0
  9
$CHAMFERD
 40
0.0
  9
$SKPOLY
 70
     0
  9
$TDCREATE
 40
2457823.496516204
  9
$TDUCREATE
 40
2457823.121516204
  9
$TDUPDATE
 40
2457823.549965278
  9
$TDUUPDATE
 40
2457823.174965278
  9
$TDINDWG
 40
0.0003125000
  9
$TDUSRTIMER
 40
0.0003125000
  9
$USRTIMER
 70
     1
  9
$ANGBASE
 50
0.0
  9
$ANGDIR
 70
     0
  9
$PDMODE
 70
     1
  9
$PDSIZE
 40
-2.0
  9
$PLINEWID
 40
0.0
  9
$SPLFRAME
 70
     0
  9
$SPLINETYPE
 70
     6
  9
$SPLINESEGS
 70
     8
  9
$HANDSEED
  5
47E
  9
$SURFTAB1
 70
     6
  9
$SURFTAB2
 70
     6
  9
$SURFTYPE
 70
     6
  9
$SURFU
 70
     6
  9
$SURFV
 70
     6
  9
$UCSBASE
  2

  9
$UCSNAME
  2

  9
$UCSORG
 10
0.0
 20
0.0
 30
0.0
  9
$UCSXDIR
 10
1.0
 20
0.0
 30
0.0
  9
$UCSYDIR
 10
0.0
 20
1.0
 30
0.0
  9
$UCSORTHOREF
  2

  9
$UCSORTHOVIEW
 70
     0
  9
$UCSORGTOP
 10
0.0
 20
0.0
 30
0.0
  9
$UCSORGBOTTOM
 10
0.0
 20
0.0
 30
0.0
  9
$UCSORGLEFT
 10
0.0
 20
0.0
 30
0.0
  9
$UCSORGRIGHT
 10
0.0
 20
0.0
 30
0.0
  9
$UCSORGFRONT
 10
0.0
 20
0.0
 30
0.0
  9
$UCSORGBACK
 10
0.0
 20
0.0
 30
0.0
  9
$PUCSBASE
  2

  9
$PUCSNAME
  2

  9
$PUCSORG
 10
0.0
 20
0.0
 30
0.0
  9
$PUCSXDIR
 10
1.0
 20
0.0
 30
0.0
  9
$PUCSYDIR
 10
0.0
 20
1.0
 30
0.0
  9
$PUCSORTHOREF
  2

  9
$PUCSORTHOVIEW
 70
     0
  9
$PUCSORGTOP
 10
0.0
 20
0.0
 30
0.0
  9
$PUCSORGBOTTOM
 10
0.0
 20
0.0
 30
0.0
  9
$PUCSORGLEFT
 10
0.0
 20
0.0
 30
0.0
  9
$PUCSORGRIGHT
 10
0.0
 20
0.0
 30
0.0
  9
$PUCSORGFRONT
 10
0.0
 20
0.0
 30
0.0
  9
$PUCSORGBACK
 10
0.0
 20
0.0
 30
0.0
  9
$USERI1
 70
     0
  9
$USERI2
 70
     0
  9
$USERI3
 70
     0
  9
$USERI4
 70
     0
  9
$USERI5
 70
     0
  9
$USERR1
 40
0.0
  9
$USERR2
 40
0.0
  9
$USERR3
 40
0.0
  9
$USERR4
 40
0.0
  9
$USERR5
 40
0.0
  9
$WORLDVIEW
 70
     1
  9
$SHADEDGE
 70
     3
  9
$SHADEDIF
 70
    70
  9
$TILEMODE
 70
     1
  9
$MAXACTVP
 70
    64
  9
$PINSBASE
 10
0.0
 20
0.0
 30
0.0
  9
$PLIMCHECK
 70
     0
  9
$PEXTMIN
 10
1.000000000000000E+20
 20
1.000000000000000E+20
 30
1.000000000000000E+20
  9
$PEXTMAX
 10
-1.000000000000000E+20
 20
-1.000000000000000E+20
 30
-1.000000000000000E+20
  9
$PLIMMIN
 10
0.0
 20
0.0
  9
$PLIMMAX
 10
12.0
 20
9.0
  9
$UNITMODE
 70
     0
  9
$VISRETAIN
 70
     0
  9
$PLINEGEN
 70
     1
  9
$PSLTSCALE
 70
     0
  9
$TREEDEPTH
 70
  3020
  9
$CMLSTYLE
  2
Standard
  9
$CMLJUST
 70
     0
  9
$CMLSCALE
 40
1.0
  9
$PROXYGRAPHICS
 70
     1
  9
$MEASUREMENT
 70
     0
  9
$CELWEIGHT
370
    -1
  9
$ENDCAPS
280
     0
  9
$JOINSTYLE
280
     0
  9
$LWDISPLAY
290
     0
  9
$INSUNITS
 70
     0
  9
$HYPERLINKBASE
  1

  9
$STYLESHEET
  1

  9
$XEDIT
290
     1
  9
$CEPSNTYPE
380
     0
  9
$PSTYLEMODE
290
     1
  9
$FINGERPRINTGUID
  2
{8F5BE56E-EC9A-4440-88A2-42E10D0D03FF}
  9
$VERSIONGUID
  2
{B4A1A148-EBDB-5C43-AC84-610F125CDDE1}
  9
$EXTNAMES
290
     1
  9
$PSVPSCALE
 40
0.0
  9
$OLESTARTUP
290
     0
  0
ENDSEC
  0
SECTION
  2
CLASSES
  0
CLASS
  1
ACDBDICTIONARYWDFLT
  2
AcDbDictionaryWithDefault
  3
ObjectDBX Classes
 90
        0
280
     0
281
     0
  0
CLASS
  1
MATERIAL
  2
AcDbMaterial
  3
ObjectDBX Classes
 90
     1153
280
     0
281
     0
  0
CLASS
  1
VISUALSTYLE
  2
AcDbVisualStyle
  3
ObjectDBX Classes
 90
     4095
280
     0
281
     0
  0
CLASS
  1
SCALE
  2
AcDbScale
  3
ObjectDBX Classes
 90
     1153
280
     0
281
     0
  0
CLASS
  1
TABLESTYLE
  2
AcDbTableStyle
  3
ObjectDBX Classes
 90
     4095
280
     0
281
     0
  0
CLASS
  1
MLEADERSTYLE
  2
AcDbMLeaderStyle
  3
ACDB_MLEADERSTYLE_CLASS
 90
     4095
280
     0
281
     0
  0
CLASS
  1
ACDBSECTIONVIEWSTYLE
  2
AcDbSectionViewStyle
  3
ObjectDBX Classes
 90
     1025
280
     0
281
     0
  0
CLASS
  1
ACDBDETAILVIEWSTYLE
  2
AcDbDetailViewStyle
  3
ObjectDBX Classes
 90
     1025
280
     0
281
     0
  0
CLASS
  1
DICTIONARYVAR
  2
AcDbDictionaryVar
  3
ObjectDBX Classes
 90
        0
280
     0
281
     0
  0
CLASS
  1
CELLSTYLEMAP
  2
AcDbCellStyleMap
  3
ObjectDBX Classes
 90
     1152
280
     0
281
     0
  0
CLASS
  1
ACDBPLACEHOLDER
  2
AcDbPlaceHolder
  3
ObjectDBX Classes
 90
        0
280
     0
281
     0
  0
CLASS
  1
LAYOUT
  2
AcDbLayout
  3
ObjectDBX Classes
 90
        0
280
     0
281
     0
  0
ENDSEC
  0
SECTION
  2
TABLES
  0
TABLE
  2
VPORT
  5
3A5
330
0
100
AcDbSymbolTable
 70
     1
  0
VPORT
  5
411
330
3A5
100
AcDbSymbolTableRecord
100
AcDbViewportTableRecord
  2
*ACTIVE
 70
     0
 10
0.0
 20
0.0
 11
1.0
 21
1.0
 12
0.0000041909515858
 22
-3.531808781940981
 13
0.0
 23
0.0
 14
1.0
 24
1.0
 15
0.0
 25
0.0
 16
0.0
 26
0.0
 36
1.0
 17
0.0
 27
0.0
 37
0.0
 40
2685.664604945443
 41
2.358402971216341
 42
50.0
 43
0.0
 44
0.0
 50
0.0
 51
0.0
 71
     0
 72
  2000
 73
     1
 74
     1
 75
     0
 76
     0
 77
     0
 78
     0
281
     0
 65
     1
110
0.0
120
0.0
130
0.0
111
1.0
121
0.0
131
0.0
112
0.0
122
1.0
132
0.0
 79
     0
146
0.0
1001
ACAD_NAV_VCDISPLAY
1070
     3
  0
ENDTAB
  0
TABLE
  2
LTYPE
  5
3A2
330
0
100
AcDbSymbolTable
 70
    11
  0
LTYPE
  5
3F7
330
3A2
100
AcDbSymbolTableRecord
100
AcDbLinetypeTableRecord
  2
ByBlock
 70
     0
  3

 72
    65
 73
     0
 40
0.0
  0
LTYPE
  5
3F8
330
3A2
100
AcDbSymbolTableRecord
100
AcDbLinetypeTableRecord
  2
ByLayer
 70
     0
  3

 72
    65
 73
     0
 40
0.0
  0
LTYPE
  5
3F9
330
3A2
100
AcDbSymbolTableRecord
100
AcDbLinetypeTableRecord
  2
CONTINUOUS
 70
     0
  3
Solid line
 72
    65
 73
     0
 40
0.0
  0
ENDTAB
  0
TABLE
  2
LAYER
  5
39F
330
0
100
AcDbSymbolTable
 70
     6
  0
LAYER
  5
3F1
102
{ACAD_XDICTIONARY
360
426
102
}
330
39F
100
AcDbSymbolTableRecord
100
AcDbLayerTableRecord
  2
0
 70
     0
 62
     7
  6
CONTINUOUS
370
    -3
390
3AC
  0
LAYER
  5
410
102
{ACAD_XDICTIONARY
360
428
102
}
330
39F
100
AcDbSymbolTableRecord
100
AcDbLayerTableRecord
  2
DATA
 70
     0
 62
     7
  6
CONTINUOUS
370
    -3
390
3AC
  0
LAYER
  5
41C
102
{ACAD_XDICTIONARY
360
42A
102
}
330
39F
100
AcDbSymbolTableRecord
100
AcDbLayerTableRecord
  2
HIBINO-BASE
 70
     0
 62
     7
  6
CONTINUOUS
370
    -3
390
3AC
  0
LAYER
  5
41D
102
{ACAD_XDICTIONARY
360
42C
102
}
330
39F
100
AcDbSymbolTableRecord
100
AcDbLayerTableRecord
  2
PATTERN_FILL
 70
     0
 62
     7
  6
CONTINUOUS
370
    -3
390
3AC
  0
LAYER
  5
41E
102
{ACAD_XDICTIONARY
360
42E
102
}
330
39F
100
AcDbSymbolTableRecord
100
AcDbLayerTableRecord
  2
SPEC
 70
     0
 62
     7
  6
CONTINUOUS
370
    -3
390
3AC
  0
LAYER
  5
41F
102
{ACAD_XDICTIONARY
360
430
102
}
330
39F
100
AcDbSymbolTableRecord
100
AcDbLayerTableRecord
  2
DIMNSIONS
 70
     0
 62
     7
  6
CONTINUOUS
370
    -3
390
3AC
  0
ENDTAB
  0
TABLE
  2
STYLE
  5
3A0
330
0
100
AcDbSymbolTable
 70
     3
  0
STYLE
  5
3F2
330
3A0
100
AcDbSymbolTableRecord
100
AcDbTextStyleTableRecord
  2
STANDARD
 70
     0
 40
0.0
 41
1.0
 50
0.0
 71
     0
 42
0.0
  3
txt
  4
BIGFONT.SHX
  0
ENDTAB
  0
TABLE
  2
VIEW
  5
3A3
330
0
100
AcDbSymbolTable
 70
     0
  0
ENDTAB
  0
TABLE
  2
UCS
  5
3A4
330
0
100
AcDbSymbolTable
 70
     0
  0
ENDTAB
  0
TABLE
  2
APPID
  5
3A6
330
0
100
AcDbSymbolTable
 70
     4
  0
APPID
  5
3F3
330
3A6
100
AcDbSymbolTableRecord
100
AcDbRegAppTableRecord
  2
ACAD
 70
     0
  0
APPID
  5
3FA
330
3A6
100
AcDbSymbolTableRecord
100
AcDbRegAppTableRecord
  2
AcadAnnotative
 70
     0
  0
APPID
  5
43C
330
3A6
100
AcDbSymbolTableRecord
100
AcDbRegAppTableRecord
  2
ACAD_NAV_VCDISPLAY
 70
     0
  0
APPID
  5
475
330
3A6
100
AcDbSymbolTableRecord
100
AcDbRegAppTableRecord
  2
ACAD_MLEADERVER
 70
     0
  0
ENDTAB
  0
TABLE
  2
DIMSTYLE
  5
3A7
330
0
100
AcDbSymbolTable
 70
     2
100
AcDbDimStyleTable
 71
     0
  0
DIMSTYLE
105
3F4
330
3A7
100
AcDbSymbolTableRecord
100
AcDbDimStyleTableRecord
  2
STANDARD
 70
     0
279
     2
340
3F2
  0
ENDTAB
  0
TABLE
  2
BLOCK_RECORD
  5
39E
330
0
100
AcDbSymbolTable
 70
     0
  0
BLOCK_RECORD
  5
40C
330
39E
100
AcDbSymbolTableRecord
100
AcDbBlockTableRecord
  2
*Model_Space
340
40F
  0
BLOCK_RECORD
  5
408
330
39E
100
AcDbSymbolTableRecord
100
AcDbBlockTableRecord
  2
*Paper_Space
340
40B
  0
ENDTAB
  0
ENDSEC
  0
SECTION
  2
BLOCKS
  0
BLOCK
  5
40D
330
40C
100
AcDbEntity
  8
0
100
AcDbBlockBegin
  2
*Model_Space
 70
     0
 10
0.0
 20
0.0
 30
0.0
  3
*Model_Space
  1

  0
ENDBLK
  5
40E
330
40C
100
AcDbEntity
  8
0
100
AcDbBlockEnd
  0
BLOCK
  5
409
330
408
100
AcDbEntity
 67
     1
  8
0
100
AcDbBlockBegin
  2
*Paper_Space
 70
     0
 10
0.0
 20
0.0
 30
0.0
  3
*Paper_Space
  1

  0
ENDBLK
  5
40A
330
408
100
AcDbEntity
 67
     1
  8
0
100
AcDbBlockEnd
  0
ENDSEC
  0
SECTION
  2
ENTITIES
  0
LINE
  5
2D
330
40C
100
AcDbEntity
  8
HIBINO-BASE
  6
Continuous
 62
     7
100
AcDbLine
 10
-900.0
 20
1331.786335
 30
0.0
 11
900.0
 21
1331.786335
 31
0.0
  0
LINE
  5
2E
330
40C
100
AcDbEntity
  8
HIBINO-BASE
  6
Continuous
 62
     7
100
AcDbLine
 10
900.0
 20
-1268.213665
 30
0.0
 11
-900.0
 21
-1268.213665
 31
0.0
  0
LINE
  5
2F
330
40C
100
AcDbEntity
  8
HIBINO-BASE
  6
Continuous
 62
     7
100
AcDbLine
 10
-900.0
 20
-1268.213665
 30
0.0
 11
-900.0
 21
1331.786335
 31
0.0
  0
LINE
  5
30
330
40C
100
AcDbEntity
  8
HIBINO-BASE
  6
Continuous
 62
     7
100
AcDbLine
 10
900.0
 20
1331.786335
 30
0.0
 11
900.0
 21
-1268.213665
 31
0.0
  0
LINE
  5
31
330
40C
100
AcDbEntity
  8
HIBINO-BASE
  6
Continuous
 62
     7
100
AcDbLine
 10
0.0000000000000711
 20
-1043.213665
 30
0.0
 11
900.0
 21
-1043.213665
 31
0.0
  0
LINE
  5
32
330
40C
100
AcDbEntity
  8
HIBINO-BASE
  6
Continuous
 62
     7
100
AcDbLine
 10
0.0000000000000711
 20
-1268.213665
 30
0.0
 11
0.0000000000000711
 21
-1043.213665
 31
0.0
  0
TEXT
  5
33
330
40C
100
AcDbEntity
  8
HIBINO-BASE
 62
     7
100
AcDbText
 10
9.000000000000126
 20
-1068.300598333333
 30
0.0
 40
16.28841145833333
  1
NOTE
 41
0.7
 11
9.000000000000127
 21
-1052.012186875
 31
0.0
100
AcDbText
 73
     3
  0
LINE
  5
34
330
40C
100
AcDbEntity
  8
HIBINO-BASE
  6
Continuous
 62
     7
100
AcDbLine
 10
350.0000000000002
 20
-1268.213665
 30
0.0
 11
350.0000000000002
 21
-1043.213665
 31
0.0
  0
TEXT
  5
35
330
40C
100
AcDbEntity
  8
HIBINO-BASE
 62
     7
100
AcDbText
 10
359.0
 20
-1068.300598333333
 30
0.0
 40
16.28841145833333
  1
TITLE
 41
0.7
 11
359.0
 21
-1052.012186875
 31
0.0
100
AcDbText
 73
     3
  0
LINE
  5
36
330
40C
100
AcDbEntity
  8
HIBINO-BASE
  6
Continuous
 62
     7
100
AcDbLine
 10
0.0000000000000711
 20
-1168.213665
 30
0.0
 11
900.0
 21
-1168.213665
 31
0.0
  0
TEXT
  5
37
330
40C
100
AcDbEntity
  8
HIBINO-BASE
 62
     7
100
AcDbText
 10
483.9999999999999
 20
-1192.737398333332
 30
0.0
 40
16.28841145833333
  1
DRAWN
 41
0.7
 11
483.9999999999999
 21
-1176.448986874999
 31
0.0
100
AcDbText
 73
     3
  0
TEXT
  5
38
330
40C
100
AcDbEntity
  8
HIBINO-BASE
 62
     7
100
AcDbText
 10
234.0
 20
-1192.737398333332
 30
0.0
 40
16.28841145833333
  1
DATE
 41
0.7
 11
234.0
 21
-1176.448986874999
 31
0.0
100
AcDbText
 73
     3
  0
TEXT
  5
39
330
40C
100
AcDbEntity
  8
HIBINO-BASE
 62
     7
100
AcDbText
 10
134.0
 20
-1192.737398333332
 30
0.0
 40
16.28841145833333
  1
SCALE
 41
0.7
 11
134.0
 21
-1176.448986874999
 31
0.0
100
AcDbText
 73
     3
  0
TEXT
  5
3A
330
40C
100
AcDbEntity
  8
HIBINO-BASE
 62
     7
100
AcDbText
 10
359.0
 20
-1192.737398333332
 30
0.0
 40
16.28841145833333
  1
DESIGN
 41
0.7
 11
359.0
 21
-1176.448986874999
 31
0.0
100
AcDbText
 73
     3
  0
TEXT
  5
3B
330
40C
100
AcDbEntity
  8
HIBINO-BASE
 62
     7
100
AcDbText
 10
734.0
 20
-1192.737398333332
 30
0.0
 40
16.28841145833333
  1
DRAWING NO.
 41
0.7
 11
734.0
 21
-1176.448986874999
 31
0.0
100
AcDbText
 73
     3
  0
TEXT
  5
3C
330
40C
100
AcDbEntity
  8
HIBINO-BASE
 62
     7
100
AcDbText
 10
608.9999999999998
 20
-1192.737398333332
 30
0.0
 40
16.28841145833333
  1
CHECK
 41
0.7
 11
608.9999999999998
 21
-1176.448986874999
 31
0.0
100
AcDbText
 73
     3
  0
LINE
  5
3D
330
40C
100
AcDbEntity
  8
HIBINO-BASE
  6
Continuous
 62
     7
100
AcDbLine
 10
143.75
 20
-1255.713665
 30
0.0
 11
181.2500000000002
 21
-1218.213665
 31
0.0
  0
TEXT
  5
3E
330
40C
100
AcDbEntity
  8
HIBINO-BASE
 62
     7
100
AcDbText
 10
137.5
 20
-1229.303098333333
 30
0.0
 40
16.28841145833333
  1
1
 41
0.7
 11
137.5
 21
-1213.014686875
 31
0.0
100
AcDbText
 73
     3
  0
LINE
  5
3F
330
40C
100
AcDbEntity
  8
HIBINO-BASE
  6
Continuous
 62
     7
100
AcDbLine
 10
125.0
 20
-1268.213665
 30
0.0
 11
125.0
 21
-1168.213665
 31
0.0
  0
LINE
  5
40
330
40C
100
AcDbEntity
  8
HIBINO-BASE
  6
Continuous
 62
     7
100
AcDbLine
 10
225.0
 20
-1268.213665
 30
0.0
 11
225.0
 21
-1168.213665
 31
0.0
  0
LINE
  5
41
330
40C
100
AcDbEntity
  8
HIBINO-BASE
  6
Continuous
 62
     7
100
AcDbLine
 10
474.9999999999999
 20
-1168.213665
 30
0.0
 11
474.9999999999999
 21
-1268.213665
 31
0.0
  0
LINE
  5
42
330
40C
100
AcDbEntity
  8
HIBINO-BASE
  6
Continuous
 62
     7
100
AcDbLine
 10
725.0
 20
-1168.213665
 30
0.0
 11
725.0
 21
-1268.213665
 31
0.0
  0
LINE
  5
43
330
40C
100
AcDbEntity
  8
HIBINO-BASE
  6
Continuous
 62
     7
100
AcDbLine
 10
599.9999999999999
 20
-1268.213665
 30
0.0
 11
599.9999999999999
 21
-1168.213665
 31
0.0
  0
TEXT
  5
44
330
40C
100
AcDbEntity
  8
HIBINO-BASE
 62
     7
100
AcDbText
 10
233.5654000000002
 20
-1239.577198333333
 30
0.0
 40
16.28841145833333
  1
'17.02.
 41
0.7
 11
233.5654000000002
 21
-1223.288786875
 31
0.0
100
AcDbText
 73
     3
  0
TEXT
  5
45
330
40C
100
AcDbEntity
  8
HIBINO-BASE
 62
     7
100
AcDbText
 10
175.0000000000001
 20
-1248.053098333333
 30
0.0
 40
16.28841145833333
  1
10
 41
0.7
 11
175.0000000000001
 21
-1231.764686874999
 31
0.0
100
AcDbText
 73
     3
  0
TEXT
  5
46
330
40C
100
AcDbEntity
  8
HIBINO-BASE
 62
     7
100
AcDbText
 10
490.0581001103462
 20
-1239.577198333333
 30
0.0
 40
16.28841145833333
  1
N.Sasaki
 41
0.7
 11
490.0581001103462
 21
-1223.288786875
 31
0.0
100
AcDbText
 73
     3
  0
TEXT
  5
47
330
40C
100
AcDbEntity
  8
HIBINO-BASE
 62
     7
100
AcDbText
 10
38.83333333333361
 20
-1248.453665
 30
0.0
 40
32.57682291666667
  1
A4
 41
0.7
 11
38.83333333333361
 21
-1215.876842083333
 31
0.0
100
AcDbText
 73
     3
  0
TEXT
  5
48
330
40C
100
AcDbEntity
  8
HIBINO-BASE
 62
     7
100
AcDbText
 10
9.583333333333353
 20
-1194.408215
 30
0.0
 40
16.28841145833333
  1
PAPER SIZE
 41
0.7
 11
9.583333333333355
 21
-1178.119803541666
 31
0.0
100
AcDbText
 73
     3
  0
TEXT
  5
49
330
40C
100
AcDbEntity
  8
HIBINO-BASE
 62
     7
100
AcDbText
 10
-828.1599999999997
 20
-1332.300443
 30
0.0
 40
36.00044179687499
  1
Hibino Corporation
 41
0.7
 11
-828.1599999999997
 21
-1296.300001203125
 31
0.0
100
AcDbText
 73
     3
  0
TEXT
  5
4A
330
40C
100
AcDbEntity
  8
HIBINO-BASE
 62
     7
100
AcDbText
 10
500.6839
 20
-1332.300443
 30
0.0
 40
36.00044179687499
  1
ヒビノ株式会社
 41
0.7
 11
500.6839
 21
-1296.300001203125
 31
0.0
100
AcDbText
 73
     3
  0
CIRCLE
  5
4B
330
40C
100
AcDbEntity
  8
PATTERN_FILL
  6
Continuous
 62
     7
100
AcDbCircle
 10
-449.8523763549834
 20
-400.0
 30
0.0
 40
3.5
  0
CIRCLE
  5
4C
330
40C
100
AcDbEntity
  8
PATTERN_FILL
  6
Continuous
 62
     7
100
AcDbCircle
 10
-459.8523763549834
 20
-400.0
 30
0.0
 40
3.5
  0
CIRCLE
  5
4D
330
40C
100
AcDbEntity
  8
PATTERN_FILL
  6
Continuous
 62
     7
100
AcDbCircle
 10
-469.8523763549834
 20
-400.0
 30
0.0
 40
3.5
  0
CIRCLE
  5
4E
330
40C
100
AcDbEntity
  8
PATTERN_FILL
  6
Continuous
 62
     7
100
AcDbCircle
 10
-479.8523763549834
 20
-400.0
 30
0.0
 40
3.5
  0
CIRCLE
  5
4F
330
40C
100
AcDbEntity
  8
PATTERN_FILL
  6
Continuous
 62
     7
100
AcDbCircle
 10
-489.8523763549834
 20
-400.0
 30
0.0
 40
3.5
  0
CIRCLE
  5
50
330
40C
100
AcDbEntity
  8
PATTERN_FILL
  6
Continuous
 62
     7
100
AcDbCircle
 10
-499.8523763549834
 20
-400.0
 30
0.0
 40
3.5
  0
CIRCLE
  5
51
330
40C
100
AcDbEntity
  8
PATTERN_FILL
  6
Continuous
 62
     7
100
AcDbCircle
 10
-509.8523763549834
 20
-400.0
 30
0.0
 40
3.5
  0
CIRCLE
  5
52
330
40C
100
AcDbEntity
  8
PATTERN_FILL
  6
Continuous
 62
     7
100
AcDbCircle
 10
-519.8523763549834
 20
-400.0
 30
0.0
 40
3.5
  0
CIRCLE
  5
53
330
40C
100
AcDbEntity
  8
PATTERN_FILL
  6
Continuous
 62
     7
100
AcDbCircle
 10
-529.8523763549834
 20
-400.0
 30
0.0
 40
3.5
  0
CIRCLE
  5
54
330
40C
100
AcDbEntity
  8
PATTERN_FILL
  6
Continuous
 62
     7
100
AcDbCircle
 10
-539.8523763549834
 20
-400.0
 30
0.0
 40
3.5
  0
CIRCLE
  5
55
330
40C
100
AcDbEntity
  8
PATTERN_FILL
  6
Continuous
 62
     7
100
AcDbCircle
 10
-559.8523763549834
 20
-400.0
 30
0.0
 40
3.5
  0
CIRCLE
  5
56
330
40C
100
AcDbEntity
  8
PATTERN_FILL
  6
Continuous
 62
     7
100
AcDbCircle
 10
-569.8523763549835
 20
-400.0
 30
0.0
 40
3.5
  0
CIRCLE
  5
57
330
40C
100
AcDbEntity
  8
PATTERN_FILL
  6
Continuous
 62
     7
100
AcDbCircle
 10
-579.8523763549836
 20
-400.0
 30
0.0
 40
3.5
  0
CIRCLE
  5
58
330
40C
100
AcDbEntity
  8
PATTERN_FILL
  6
Continuous
 62
     7
100
AcDbCircle
 10
-589.8523763549835
 20
-400.0
 30
0.0
 40
3.5
  0
CIRCLE
  5
59
330
40C
100
AcDbEntity
  8
PATTERN_FILL
  6
Continuous
 62
     7
100
AcDbCircle
 10
-599.8523763549835
 20
-400.0
 30
0.0
 40
3.5
  0
CIRCLE
  5
5A
330
40C
100
AcDbEntity
  8
PATTERN_FILL
  6
Continuous
 62
     7
100
AcDbCircle
 10
-609.8523763549835
 20
-400.0
 30
0.0
 40
3.5
  0
CIRCLE
  5
5B
330
40C
100
AcDbEntity
  8
PATTERN_FILL
  6
Continuous
 62
     7
100
AcDbCircle
 10
-619.8523763549835
 20
-400.0
 30
0.0
 40
3.5
  0
CIRCLE
  5
5C
330
40C
100
AcDbEntity
  8
PATTERN_FILL
  6
Continuous
 62
     7
100
AcDbCircle
 10
-629.8523763549836
 20
-400.0
 30
0.0
 40
3.5
  0
CIRCLE
  5
5D
330
40C
100
AcDbEntity
  8
PATTERN_FILL
  6
Continuous
 62
     7
100
AcDbCircle
 10
-639.8523763549835
 20
-400.0
 30
0.0
 40
3.5
  0
CIRCLE
  5
5E
330
40C
100
AcDbEntity
  8
PATTERN_FILL
  6
Continuous
 62
     7
100
AcDbCircle
 10
-649.8523763549835
 20
-400.0
 30
0.0
 40
3.5
  0
CIRCLE
  5
5F
330
40C
100
AcDbEntity
  8
PATTERN_FILL
  6
Continuous
 62
     7
100
AcDbCircle
 10
-449.8523763549834
 20
-390.0
 30
0.0
 40
3.5
  0
CIRCLE
  5
60
330
40C
100
AcDbEntity
  8
PATTERN_FILL
  6
Continuous
 62
     7
100
AcDbCircle
 10
-459.8523763549834
 20
-390.0
 30
0.0
 40
3.5
  0
CIRCLE
  5
61
330
40C
100
AcDbEntity
  8
PATTERN_FILL
  6
Continuous
 62
     7
100
AcDbCircle
 10
-469.8523763549834
 20
-390.0
 30
0.0
 40
3.5
  0
CIRCLE
  5
62
330
40C
100
AcDbEntity
  8
PATTERN_FILL
  6
Continuous
 62
     7
100
AcDbCircle
 10
-479.8523763549834
 20
-390.0
 30
0.0
 40
3.5
  0
CIRCLE
  5
63
330
40C
100
AcDbEntity
  8
PATTERN_FILL
  6
Continuous
 62
     7
100
AcDbCircle
 10
-489.8523763549834
 20
-390.0
 30
0.0
 40
3.5
  0
CIRCLE
  5
64
330
40C
100
AcDbEntity
  8
PATTERN_FILL
  6
Continuous
 62
     7
100
AcDbCircle
 10
-499.8523763549834
 20
-390.0
 30
0.0
 40
3.5
  0
CIRCLE
  5
65
330
40C
100
AcDbEntity
  8
PATTERN_FILL
  6
Continuous
 62
     7
100
AcDbCircle
 10
-509.8523763549834
 20
-390.0
 30
0.0
 40
3.5
  0
CIRCLE
  5
66
330
40C
100
AcDbEntity
  8
PATTERN_FILL
  6
Continuous
 62
     7
100
AcDbCircle
 10
-519.8523763549834
 20
-390.0
 30
0.0
 40
3.5
  0
CIRCLE
  5
67
330
40C
100
AcDbEntity
  8
PATTERN_FILL
  6
Continuous
 62
     7
100
AcDbCircle
 10
-529.8523763549834
 20
-390.0
 30
0.0
 40
3.5
  0
CIRCLE
  5
68
330
40C
100
AcDbEntity
  8
PATTERN_FILL
  6
Continuous
 62
     7
100
AcDbCircle
 10
-539.8523763549834
 20
-390.0
 30
0.0
 40
3.5
  0
CIRCLE
  5
69
330
40C
100
AcDbEntity
  8
PATTERN_FILL
  6
Continuous
 62
     7
100
AcDbCircle
 10
-559.8523763549834
 20
-390.0
 30
0.0
 40
3.5
  0
CIRCLE
  5
6A
330
40C
100
AcDbEntity
  8
PATTERN_FILL
  6
Continuous
 62
     7
100
AcDbCircle
 10
-569.8523763549835
 20
-390.0
 30
0.0
 40
3.5
  0
CIRCLE
  5
6B
330
40C
100
AcDbEntity
  8
PATTERN_FILL
  6
Continuous
 62
     7
100
AcDbCircle
 10
-579.8523763549836
 20
-390.0
 30
0.0
 40
3.5
  0
CIRCLE
  5
6C
330
40C
100
AcDbEntity
  8
PATTERN_FILL
  6
Continuous
 62
     7
100
AcDbCircle
 10
-589.8523763549835
 20
-390.0
 30
0.0
 40
3.5
  0
CIRCLE
  5
6D
330
40C
100
AcDbEntity
  8
PATTERN_FILL
  6
Continuous
 62
     7
100
AcDbCircle
 10
-599.8523763549835
 20
-390.0
 30
0.0
 40
3.5
  0
CIRCLE
  5
6E
330
40C
100
AcDbEntity
  8
PATTERN_FILL
  6
Continuous
 62
     7
100
AcDbCircle
 10
-609.8523763549835
 20
-390.0
 30
0.0
 40
3.5
  0
CIRCLE
  5
6F
330
40C
100
AcDbEntity
  8
PATTERN_FILL
  6
Continuous
 62
     7
100
AcDbCircle
 10
-619.8523763549835
 20
-390.0
 30
0.0
 40
3.5
  0
CIRCLE
  5
70
330
40C
100
AcDbEntity
  8
PATTERN_FILL
  6
Continuous
 62
     7
100
AcDbCircle
 10
-629.8523763549836
 20
-390.0
 30
0.0
 40
3.5
  0
CIRCLE
  5
71
330
40C
100
AcDbEntity
  8
PATTERN_FILL
  6
Continuous
 62
     7
100
AcDbCircle
 10
-639.8523763549835
 20
-390.0
 30
0.0
 40
3.5
  0
CIRCLE
  5
72
330
40C
100
AcDbEntity
  8
PATTERN_FILL
  6
Continuous
 62
     7
100
AcDbCircle
 10
-649.8523763549835
 20
-390.0
 30
0.0
 40
3.5
  0
ARC
  5
73
330
40C
100
AcDbEntity
  8
PATTERN_FILL
  6
Continuous
 62
     7
100
AcDbCircle
 10
-549.8523763549832
 20
-390.0
 30
0.0
 40
3.499999999999961
100
AcDbArc
 50
294.0566502400657
 51
245.9433497599309
  0
ARC
  5
74
330
40C
100
AcDbEntity
  8
PATTERN_FILL
  6
Continuous
 62
     7
100
AcDbCircle
 10
-449.8523763549834
 20
-380.0000000000001
 30
0.0
 40
3.500000000000066
100
AcDbArc
 50
46.62609691199985
 51
335.9612825647723
  0
CIRCLE
  5
75
330
40C
100
AcDbEntity
  8
PATTERN_FILL
  6
Continuous
 62
     7
100
AcDbCircle
 10
-459.8523763549834
 20
-380.0
 30
0.0
 40
3.5
  0
CIRCLE
  5
76
330
40C
100
AcDbEntity
  8
PATTERN_FILL
  6
Continuous
 62
     7
100
AcDbCircle
 10
-469.8523763549834
 20
-380.0
 30
0.0
 40
3.5
  0
CIRCLE
  5
77
330
40C
100
AcDbEntity
  8
PATTERN_FILL
  6
Continuous
 62
     7
100
AcDbCircle
 10
-479.8523763549834
 20
-380.0
 30
0.0
 40
3.5
  0
CIRCLE
  5
78
330
40C
100
AcDbEntity
  8
PATTERN_FILL
  6
Continuous
 62
     7
100
AcDbCircle
 10
-489.8523763549834
 20
-380.0
 30
0.0
 40
3.5
  0
CIRCLE
  5
79
330
40C
100
AcDbEntity
  8
PATTERN_FILL
  6
Continuous
 62
     7
100
AcDbCircle
 10
-499.8523763549834
 20
-380.0
 30
0.0
 40
3.5
  0
CIRCLE
  5
7A
330
40C
100
AcDbEntity
  8
PATTERN_FILL
  6
Continuous
 62
     7
100
AcDbCircle
 10
-509.8523763549834
 20
-380.0
 30
0.0
 40
3.5
  0
CIRCLE
  5
7B
330
40C
100
AcDbEntity
  8
PATTERN_FILL
  6
Continuous
 62
     7
100
AcDbCircle
 10
-519.8523763549834
 20
-380.0
 30
0.0
 40
3.5
  0
CIRCLE
  5
7C
330
40C
100
AcDbEntity
  8
PATTERN_FILL
  6
Continuous
 62
     7
100
AcDbCircle
 10
-529.8523763549834
 20
-380.0
 30
0.0
 40
3.5
  0
CIRCLE
  5
7D
330
40C
100
AcDbEntity
  8
PATTERN_FILL
  6
Continuous
 62
     7
100
AcDbCircle
 10
-539.8523763549834
 20
-380.0
 30
0.0
 40
3.5
  0
CIRCLE
  5
7E
330
40C
100
AcDbEntity
  8
PATTERN_FILL
  6
Continuous
 62
     7
100
AcDbCircle
 10
-559.8523763549834
 20
-380.0
 30
0.0
 40
3.5
  0
CIRCLE
  5
7F
330
40C
100
AcDbEntity
  8
PATTERN_FILL
  6
Continuous
 62
     7
100
AcDbCircle
 10
-569.8523763549835
 20
-380.0
 30
0.0
 40
3.5
  0
CIRCLE
  5
80
330
40C
100
AcDbEntity
  8
PATTERN_FILL
  6
Continuous
 62
     7
100
AcDbCircle
 10
-579.8523763549836
 20
-380.0
 30
0.0
 40
3.5
  0
CIRCLE
  5
81
330
40C
100
AcDbEntity
  8
PATTERN_FILL
  6
Continuous
 62
     7
100
AcDbCircle
 10
-589.8523763549835
 20
-380.0
 30
0.0
 40
3.5
  0
CIRCLE
  5
82
330
40C
100
AcDbEntity
  8
PATTERN_FILL
  6
Continuous
 62
     7
100
AcDbCircle
 10
-599.8523763549835
 20
-380.0
 30
0.0
 40
3.5
  0
CIRCLE
  5
83
330
40C
100
AcDbEntity
  8
PATTERN_FILL
  6
Continuous
 62
     7
100
AcDbCircle
 10
-609.8523763549835
 20
-380.0
 30
0.0
 40
3.5
  0
CIRCLE
  5
84
330
40C
100
AcDbEntity
  8
PATTERN_FILL
  6
Continuous
 62
     7
100
AcDbCircle
 10
-619.8523763549835
 20
-380.0
 30
0.0
 40
3.5
  0
CIRCLE
  5
85
330
40C
100
AcDbEntity
  8
PATTERN_FILL
  6
Continuous
 62
     7
100
AcDbCircle
 10
-629.8523763549836
 20
-380.0
 30
0.0
 40
3.5
  0
CIRCLE
  5
86
330
40C
100
AcDbEntity
  8
PATTERN_FILL
  6
Continuous
 62
     7
100
AcDbCircle
 10
-639.8523763549835
 20
-380.0
 30
0.0
 40
3.5
  0
ARC
  5
87
330
40C
100
AcDbEntity
  8
PATTERN_FILL
  6
Continuous
 62
     7
100
AcDbCircle
 10
-649.8523763549835
 20
-380.0
 30
0.0
 40
3.50000000000003
100
AcDbArc
 50
194.388478705438
 51
142.9590785206314
  0
CIRCLE
  5
88
330
40C
100
AcDbEntity
  8
PATTERN_FILL
  6
Continuous
 62
     7
100
AcDbCircle
 10
-549.8523763549834
 20
-380.0
 30
0.0
 40
3.5
  0
ARC
  5
89
330
40C
100
AcDbEntity
  8
PATTERN_FILL
  6
Continuous
 62
     7
100
AcDbCircle
 10
-449.8523763549834
 20
-370.0
 30
0.0
 40
3.49999999999999
100
AcDbArc
 50
100.1476206978393
 51
293.204371780208
  0
CIRCLE
  5
8A
330
40C
100
AcDbEntity
  8
PATTERN_FILL
  6
Continuous
 62
     7
100
AcDbCircle
 10
-459.8523763549834
 20
-370.0
 30
0.0
 40
3.5
  0
CIRCLE
  5
8B
330
40C
100
AcDbEntity
  8
PATTERN_FILL
  6
Continuous
 62
     7
100
AcDbCircle
 10
-469.8523763549834
 20
-370.0
 30
0.0
 40
3.5
  0
CIRCLE
  5
8C
330
40C
100
AcDbEntity
  8
PATTERN_FILL
  6
Continuous
 62
     7
100
AcDbCircle
 10
-479.8523763549834
 20
-370.0
 30
0.0
 40
3.5
  0
CIRCLE
  5
8D
330
40C
100
AcDbEntity
  8
PATTERN_FILL
  6
Continuous
 62
     7
100
AcDbCircle
 10
-489.8523763549834
 20
-370.0
 30
0.0
 40
3.5
  0
CIRCLE
  5
8E
330
40C
100
AcDbEntity
  8
PATTERN_FILL
  6
Continuous
 62
     7
100
AcDbCircle
 10
-499.8523763549834
 20
-370.0
 30
0.0
 40
3.5
  0
CIRCLE
  5
8F
330
40C
100
AcDbEntity
  8
PATTERN_FILL
  6
Continuous
 62
     7
100
AcDbCircle
 10
-509.8523763549834
 20
-370.0
 30
0.0
 40
3.5
  0
CIRCLE
  5
90
330
40C
100
AcDbEntity
  8
PATTERN_FILL
  6
Continuous
 62
     7
100
AcDbCircle
 10
-519.8523763549834
 20
-370.0
 30
0.0
 40
3.5
  0
CIRCLE
  5
91
330
40C
100
AcDbEntity
  8
PATTERN_FILL
  6
Continuous
 62
     7
100
AcDbCircle
 10
-529.8523763549834
 20
-370.0
 30
0.0
 40
3.5
  0
CIRCLE
  5
92
330
40C
100
AcDbEntity
  8
PATTERN_FILL
  6
Continuous
 62
     7
100
AcDbCircle
 10
-539.8523763549834
 20
-370.0
 30
0.0
 40
3.5
  0
CIRCLE
  5
93
330
40C
100
AcDbEntity
  8
PATTERN_FILL
  6
Continuous
 62
     7
100
AcDbCircle
 10
-559.8523763549834
 20
-370.0
 30
0.0
 40
3.5
  0
CIRCLE
  5
94
330
40C
100
AcDbEntity
  8
PATTERN_FILL
  6
Continuous
 62
     7
100
AcDbCircle
 10
-569.8523763549835
 20
-370.0
 30
0.0
 40
3.5
  0
CIRCLE
  5
95
330
40C
100
AcDbEntity
  8
PATTERN_FILL
  6
Continuous
 62
     7
100
AcDbCircle
 10
-579.8523763549836
 20
-370.0
 30
0.0
 40
3.5
  0
CIRCLE
  5
96
330
40C
100
AcDbEntity
  8
PATTERN_FILL
  6
Continuous
 62
     7
100
AcDbCircle
 10
-589.8523763549835
 20
-370.0
 30
0.0
 40
3.5
  0
CIRCLE
  5
97
330
40C
100
AcDbEntity
  8
PATTERN_FILL
  6
Continuous
 62
     7
100
AcDbCircle
 10
-599.8523763549835
 20
-370.0
 30
0.0
 40
3.5
  0
CIRCLE
  5
98
330
40C
100
AcDbEntity
  8
PATTERN_FILL
  6
Continuous
 62
     7
100
AcDbCircle
 10
-609.8523763549835
 20
-370.0
 30
0.0
 40
3.5
  0
CIRCLE
  5
99
330
40C
100
AcDbEntity
  8
PATTERN_FILL
  6
Continuous
 62
     7
100
AcDbCircle
 10
-619.8523763549835
 20
-370.0
 30
0.0
 40
3.5
  0
CIRCLE
  5
9A
330
40C
100
AcDbEntity
  8
PATTERN_FILL
  6
Continuous
 62
     7
100
AcDbCircle
 10
-629.8523763549836
 20
-370.0
 30
0.0
 40
3.5
  0
CIRCLE
  5
9B
330
40C
100
AcDbEntity
  8
PATTERN_FILL
  6
Continuous
 62
     7
100
AcDbCircle
 10
-639.8523763549835
 20
-370.0
 30
0.0
 40
3.5
  0
ARC
  5
9C
330
40C
100
AcDbEntity
  8
PATTERN_FILL
  6
Continuous
 62
     7
100
AcDbCircle
 10
-649.8523763549835
 20
-370.0
 30
0.0
 40
3.499999999999993
100
AcDbArc
 50
242.0378638835427
 51
84.5170255444837
  0
CIRCLE
  5
9D
330
40C
100
AcDbEntity
  8
PATTERN_FILL
  6
Continuous
 62
     7
100
AcDbCircle
 10
-549.8523763549834
 20
-370.0
 30
0.0
 40
3.5
  0
CIRCLE
  5
9E
330
40C
100
AcDbEntity
  8
PATTERN_FILL
  6
Continuous
 62
     7
100
AcDbCircle
 10
-459.8523763549834
 20
-360.0
 30
0.0
 40
3.5
  0
CIRCLE
  5
9F
330
40C
100
AcDbEntity
  8
PATTERN_FILL
  6
Continuous
 62
     7
100
AcDbCircle
 10
-469.8523763549834
 20
-360.0
 30
0.0
 40
3.5
  0
CIRCLE
  5
A0
330
40C
100
AcDbEntity
  8
PATTERN_FILL
  6
Continuous
 62
     7
100
AcDbCircle
 10
-479.8523763549834
 20
-360.0
 30
0.0
 40
3.5
  0
CIRCLE
  5
A1
330
40C
100
AcDbEntity
  8
PATTERN_FILL
  6
Continuous
 62
     7
100
AcDbCircle
 10
-489.8523763549834
 20
-360.0
 30
0.0
 40
3.5
  0
CIRCLE
  5
A2
330
40C
100
AcDbEntity
  8
PATTERN_FILL
  6
Continuous
 62
     7
100
AcDbCircle
 10
-499.8523763549834
 20
-360.0
 30
0.0
 40
3.5
  0
CIRCLE
  5
A3
330
40C
100
AcDbEntity
  8
PATTERN_FILL
  6
Continuous
 62
     7
100
AcDbCircle
 10
-509.8523763549834
 20
-360.0
 30
0.0
 40
3.5
  0
CIRCLE
  5
A4
330
40C
100
AcDbEntity
  8
PATTERN_FILL
  6
Continuous
 62
     7
100
AcDbCircle
 10
-519.8523763549834
 20
-360.0
 30
0.0
 40
3.5
  0
CIRCLE
  5
A5
330
40C
100
AcDbEntity
  8
PATTERN_FILL
  6
Continuous
 62
     7
100
AcDbCircle
 10
-529.8523763549834
 20
-360.0
 30
0.0
 40
3.5
  0
CIRCLE
  5
A6
330
40C
100
AcDbEntity
  8
PATTERN_FILL
  6
Continuous
 62
     7
100
AcDbCircle
 10
-539.8523763549834
 20
-360.0
 30
0.0
 40
3.5
  0
CIRCLE
  5
A7
330
40C
100
AcDbEntity
  8
PATTERN_FILL
  6
Continuous
 62
     7
100
AcDbCircle
 10
-559.8523763549834
 20
-360.0
 30
0.0
 40
3.5
  0
CIRCLE
  5
A8
330
40C
100
AcDbEntity
  8
PATTERN_FILL
  6
Continuous
 62
     7
100
AcDbCircle
 10
-569.8523763549835
 20
-360.0
 30
0.0
 40
3.5
  0
CIRCLE
  5
A9
330
40C
100
AcDbEntity
  8
PATTERN_FILL
  6
Continuous
 62
     7
100
AcDbCircle
 10
-579.8523763549836
 20
-360.0
 30
0.0
 40
3.5
  0
CIRCLE
  5
AA
330
40C
100
AcDbEntity
  8
PATTERN_FILL
  6
Continuous
 62
     7
100
AcDbCircle
 10
-589.8523763549835
 20
-360.0
 30
0.0
 40
3.5
  0
CIRCLE
  5
AB
330
40C
100
AcDbEntity
  8
PATTERN_FILL
  6
Continuous
 62
     7
100
AcDbCircle
 10
-599.8523763549835
 20
-360.0
 30
0.0
 40
3.5
  0
CIRCLE
  5
AC
330
40C
100
AcDbEntity
  8
PATTERN_FILL
  6
Continuous
 62
     7
100
AcDbCircle
 10
-609.8523763549835
 20
-360.0
 30
0.0
 40
3.5
  0
CIRCLE
  5
AD
330
40C
100
AcDbEntity
  8
PATTERN_FILL
  6
Continuous
 62
     7
100
AcDbCircle
 10
-619.8523763549835
 20
-360.0
 30
0.0
 40
3.5
  0
CIRCLE
  5
AE
330
40C
100
AcDbEntity
  8
PATTERN_FILL
  6
Continuous
 62
     7
100
AcDbCircle
 10
-629.8523763549836
 20
-360.0
 30
0.0
 40
3.5
  0
CIRCLE
  5
AF
330
40C
100
AcDbEntity
  8
PATTERN_FILL
  6
Continuous
 62
     7
100
AcDbCircle
 10
-639.8523763549835
 20
-360.0
 30
0.0
 40
3.5
  0
ARC
  5
B0
330
40C
100
AcDbEntity
  8
PATTERN_FILL
  6
Continuous
 62
     7
100
AcDbCircle
 10
-649.8523763549835
 20
-360.0
 30
0.0
 40
3.500000000000031
100
AcDbArc
 50
295.9635061679421
 51
20.37526803957604
  0
CIRCLE
  5
B1
330
40C
100
AcDbEntity
  8
PATTERN_FILL
  6
Continuous
 62
     7
100
AcDbCircle
 10
-549.8523763549834
 20
-360.0
 30
0.0
 40
3.5
  0
ARC
  5
B2
330
40C
100
AcDbEntity
  8
PATTERN_FILL
  6
Continuous
 62
     7
100
AcDbCircle
 10
-459.8523763549839
 20
-350.0000000000004
 30
0.0
 40
3.500000000000401
100
AcDbArc
 50
86.66133100114079
 51
331.3681826485971
  0
CIRCLE
  5
B3
330
40C
100
AcDbEntity
  8
PATTERN_FILL
  6
Continuous
 62
     7
100
AcDbCircle
 10
-469.8523763549834
 20
-350.0
 30
0.0
 40
3.5
  0
CIRCLE
  5
B4
330
40C
100
AcDbEntity
  8
PATTERN_FILL
  6
Continuous
 62
     7
100
AcDbCircle
 10
-479.8523763549834
 20
-350.0
 30
0.0
 40
3.5
  0
CIRCLE
  5
B5
330
40C
100
AcDbEntity
  8
PATTERN_FILL
  6
Continuous
 62
     7
100
AcDbCircle
 10
-489.8523763549834
 20
-350.0
 30
0.0
 40
3.5
  0
CIRCLE
  5
B6
330
40C
100
AcDbEntity
  8
PATTERN_FILL
  6
Continuous
 62
     7
100
AcDbCircle
 10
-499.8523763549834
 20
-350.0
 30
0.0
 40
3.5
  0
CIRCLE
  5
B7
330
40C
100
AcDbEntity
  8
PATTERN_FILL
  6
Continuous
 62
     7
100
AcDbCircle
 10
-509.8523763549834
 20
-350.0
 30
0.0
 40
3.5
  0
CIRCLE
  5
B8
330
40C
100
AcDbEntity
  8
PATTERN_FILL
  6
Continuous
 62
     7
100
AcDbCircle
 10
-519.8523763549834
 20
-350.0
 30
0.0
 40
3.5
  0
CIRCLE
  5
B9
330
40C
100
AcDbEntity
  8
PATTERN_FILL
  6
Continuous
 62
     7
100
AcDbCircle
 10
-529.8523763549834
 20
-350.0
 30
0.0
 40
3.5
  0
CIRCLE
  5
BA
330
40C
100
AcDbEntity
  8
PATTERN_FILL
  6
Continuous
 62
     7
100
AcDbCircle
 10
-539.8523763549834
 20
-350.0
 30
0.0
 40
3.5
  0
CIRCLE
  5
BB
330
40C
100
AcDbEntity
  8
PATTERN_FILL
  6
Continuous
 62
     7
100
AcDbCircle
 10
-559.8523763549834
 20
-350.0
 30
0.0
 40
3.5
  0
CIRCLE
  5
BC
330
40C
100
AcDbEntity
  8
PATTERN_FILL
  6
Continuous
 62
     7
100
AcDbCircle
 10
-569.8523763549835
 20
-350.0
 30
0.0
 40
3.5
  0
CIRCLE
  5
BD
330
40C
100
AcDbEntity
  8
PATTERN_FILL
  6
Continuous
 62
     7
100
AcDbCircle
 10
-579.8523763549836
 20
-350.0
 30
0.0
 40
3.5
  0
CIRCLE
  5
BE
330
40C
100
AcDbEntity
  8
PATTERN_FILL
  6
Continuous
 62
     7
100
AcDbCircle
 10
-589.8523763549835
 20
-350.0
 30
0.0
 40
3.5
  0
CIRCLE
  5
BF
330
40C
100
AcDbEntity
  8
PATTERN_FILL
  6
Continuous
 62
     7
100
AcDbCircle
 10
-599.8523763549835
 20
-350.0
 30
0.0
 40
3.5
  0
CIRCLE
  5
C0
330
40C
100
AcDbEntity
  8
PATTERN_FILL
  6
Continuous
 62
     7
100
AcDbCircle
 10
-609.8523763549835
 20
-350.0
 30
0.0
 40
3.5
  0
CIRCLE
  5
C1
330
40C
100
AcDbEntity
  8
PATTERN_FILL
  6
Continuous
 62
     7
100
AcDbCircle
 10
-619.8523763549835
 20
-350.0
 30
0.0
 40
3.5
  0
CIRCLE
  5
C2
330
40C
100
AcDbEntity
  8
PATTERN_FILL
  6
Continuous
 62
     7
100
AcDbCircle
 10
-629.8523763549836
 20
-350.0
 30
0.0
 40
3.5
  0
ARC
  5
C3
330
40C
100
AcDbEntity
  8
PATTERN_FILL
  6
Continuous
 62
     7
100
AcDbCircle
 10
-639.8523763549835
 20
-349.9999999999998
 30
0.0
 40
3.499999999999907
100
AcDbArc
 50
203.2930406958149
 51
98.51785652734058
  0
CIRCLE
  5
C4
330
40C
100
AcDbEntity
  8
PATTERN_FILL
  6
Continuous
 62
     7
100
AcDbCircle
 10
-549.8523763549834
 20
-350.0
 30
0.0
 40
3.5
  0
CIRCLE
  5
C5
330
40C
100
AcDbEntity
  8
PATTERN_FILL
  6
Continuous
 62
     7
100
AcDbCircle
 10
-469.8523763549834
 20
-340.0
 30
0.0
 40
3.5
  0
CIRCLE
  5
C6
330
40C
100
AcDbEntity
  8
PATTERN_FILL
  6
Continuous
 62
     7
100
AcDbCircle
 10
-479.8523763549834
 20
-340.0
 30
0.0
 40
3.5
  0
CIRCLE
  5
C7
330
40C
100
AcDbEntity
  8
PATTERN_FILL
  6
Continuous
 62
     7
100
AcDbCircle
 10
-489.8523763549834
 20
-340.0
 30
0.0
 40
3.5
  0
CIRCLE
  5
C8
330
40C
100
AcDbEntity
  8
PATTERN_FILL
  6
Continuous
 62
     7
100
AcDbCircle
 10
-499.8523763549834
 20
-340.0
 30
0.0
 40
3.5
  0
CIRCLE
  5
C9
330
40C
100
AcDbEntity
  8
PATTERN_FILL
  6
Continuous
 62
     7
100
AcDbCircle
 10
-509.8523763549834
 20
-340.0
 30
0.0
 40
3.5
  0
CIRCLE
  5
CA
330
40C
100
AcDbEntity
  8
PATTERN_FILL
  6
Continuous
 62
     7
100
AcDbCircle
 10
-519.8523763549834
 20
-340.0
 30
0.0
 40
3.5
  0
CIRCLE
  5
CB
330
40C
100
AcDbEntity
  8
PATTERN_FILL
  6
Continuous
 62
     7
100
AcDbCircle
 10
-529.8523763549834
 20
-340.0
 30
0.0
 40
3.5
  0
CIRCLE
  5
CC
330
40C
100
AcDbEntity
  8
PATTERN_FILL
  6
Continuous
 62
     7
100
AcDbCircle
 10
-539.8523763549834
 20
-340.0
 30
0.0
 40
3.5
  0
CIRCLE
  5
CD
330
40C
100
AcDbEntity
  8
PATTERN_FILL
  6
Continuous
 62
     7
100
AcDbCircle
 10
-559.8523763549834
 20
-340.0
 30
0.0
 40
3.5
  0
CIRCLE
  5
CE
330
40C
100
AcDbEntity
  8
PATTERN_FILL
  6
Continuous
 62
     7
100
AcDbCircle
 10
-569.8523763549835
 20
-340.0
 30
0.0
 40
3.5
  0
CIRCLE
  5
CF
330
40C
100
AcDbEntity
  8
PATTERN_FILL
  6
Continuous
 62
     7
100
AcDbCircle
 10
-579.8523763549836
 20
-340.0
 30
0.0
 40
3.5
  0
CIRCLE
  5
D0
330
40C
100
AcDbEntity
  8
PATTERN_FILL
  6
Continuous
 62
     7
100
AcDbCircle
 10
-589.8523763549835
 20
-340.0
 30
0.0
 40
3.5
  0
CIRCLE
  5
D1
330
40C
100
AcDbEntity
  8
PATTERN_FILL
  6
Continuous
 62
     7
100
AcDbCircle
 10
-599.8523763549835
 20
-340.0
 30
0.0
 40
3.5
  0
CIRCLE
  5
D2
330
40C
100
AcDbEntity
  8
PATTERN_FILL
  6
Continuous
 62
     7
100
AcDbCircle
 10
-609.8523763549835
 20
-340.0
 30
0.0
 40
3.5
  0
CIRCLE
  5
D3
330
40C
100
AcDbEntity
  8
PATTERN_FILL
  6
Continuous
 62
     7
100
AcDbCircle
 10
-619.8523763549835
 20
-340.0
 30
0.0
 40
3.5
  0
CIRCLE
  5
D4
330
40C
100
AcDbEntity
  8
PATTERN_FILL
  6
Continuous
 62
     7
100
AcDbCircle
 10
-629.8523763549836
 20
-340.0
 30
0.0
 40
3.5
  0
ARC
  5
D5
330
40C
100
AcDbEntity
  8
PATTERN_FILL
  6
Continuous
 62
     7
100
AcDbCircle
 10
-639.8523763549835
 20
-340.0
 30
0.0
 40
3.499999999999977
100
AcDbArc
 50
297.1447398891937
 51
355.3882755616609
  0
CIRCLE
  5
D6
330
40C
100
AcDbEntity
  8
PATTERN_FILL
  6
Continuous
 62
     7
100
AcDbCircle
 10
-549.8523763549834
 20
-340.0
 30
0.0
 40
3.5
  0
ARC
  5
D7
330
40C
100
AcDbEntity
  8
PATTERN_FILL
  6
Continuous
 62
     7
100
AcDbCircle
 10
-469.8523763549834
 20
-330.0
 30
0.0
 40
3.499999999999976
100
AcDbArc
 50
155.8020351474421
 51
286.4651326145079
  0
CIRCLE
  5
D8
330
40C
100
AcDbEntity
  8
PATTERN_FILL
  6
Continuous
 62
     7
100
AcDbCircle
 10
-479.8523763549834
 20
-330.0
 30
0.0
 40
3.5
  0
CIRCLE
  5
D9
330
40C
100
AcDbEntity
  8
PATTERN_FILL
  6
Continuous
 62
     7
100
AcDbCircle
 10
-489.8523763549834
 20
-330.0
 30
0.0
 40
3.5
  0
CIRCLE
  5
DA
330
40C
100
AcDbEntity
  8
PATTERN_FILL
  6
Continuous
 62
     7
100
AcDbCircle
 10
-499.8523763549834
 20
-330.0
 30
0.0
 40
3.5
  0
CIRCLE
  5
DB
330
40C
100
AcDbEntity
  8
PATTERN_FILL
  6
Continuous
 62
     7
100
AcDbCircle
 10
-509.8523763549834
 20
-330.0
 30
0.0
 40
3.5
  0
CIRCLE
  5
DC
330
40C
100
AcDbEntity
  8
PATTERN_FILL
  6
Continuous
 62
     7
100
AcDbCircle
 10
-519.8523763549834
 20
-330.0
 30
0.0
 40
3.5
  0
CIRCLE
  5
DD
330
40C
100
AcDbEntity
  8
PATTERN_FILL
  6
Continuous
 62
     7
100
AcDbCircle
 10
-529.8523763549834
 20
-330.0
 30
0.0
 40
3.5
  0
CIRCLE
  5
DE
330
40C
100
AcDbEntity
  8
PATTERN_FILL
  6
Continuous
 62
     7
100
AcDbCircle
 10
-539.8523763549834
 20
-330.0
 30
0.0
 40
3.5
  0
CIRCLE
  5
DF
330
40C
100
AcDbEntity
  8
PATTERN_FILL
  6
Continuous
 62
     7
100
AcDbCircle
 10
-559.8523763549834
 20
-330.0
 30
0.0
 40
3.5
  0
CIRCLE
  5
E0
330
40C
100
AcDbEntity
  8
PATTERN_FILL
  6
Continuous
 62
     7
100
AcDbCircle
 10
-569.8523763549835
 20
-330.0
 30
0.0
 40
3.5
  0
CIRCLE
  5
E1
330
40C
100
AcDbEntity
  8
PATTERN_FILL
  6
Continuous
 62
     7
100
AcDbCircle
 10
-579.8523763549836
 20
-330.0
 30
0.0
 40
3.5
  0
CIRCLE
  5
E2
330
40C
100
AcDbEntity
  8
PATTERN_FILL
  6
Continuous
 62
     7
100
AcDbCircle
 10
-589.8523763549835
 20
-330.0
 30
0.0
 40
3.5
  0
CIRCLE
  5
E3
330
40C
100
AcDbEntity
  8
PATTERN_FILL
  6
Continuous
 62
     7
100
AcDbCircle
 10
-599.8523763549835
 20
-330.0
 30
0.0
 40
3.5
  0
CIRCLE
  5
E4
330
40C
100
AcDbEntity
  8
PATTERN_FILL
  6
Continuous
 62
     7
100
AcDbCircle
 10
-609.8523763549835
 20
-330.0
 30
0.0
 40
3.5
  0
CIRCLE
  5
E5
330
40C
100
AcDbEntity
  8
PATTERN_FILL
  6
Continuous
 62
     7
100
AcDbCircle
 10
-619.8523763549835
 20
-330.0
 30
0.0
 40
3.5
  0
ARC
  5
E6
330
40C
100
AcDbEntity
  8
PATTERN_FILL
  6
Continuous
 62
     7
100
AcDbCircle
 10
-629.8523763549836
 20
-330.0
 30
0.0
 40
3.499999999999982
100
AcDbArc
 50
249.5360116898039
 51
27.98723636815089
  0
CIRCLE
  5
E7
330
40C
100
AcDbEntity
  8
PATTERN_FILL
  6
Continuous
 62
     7
100
AcDbCircle
 10
-549.8523763549834
 20
-330.0
 30
0.0
 40
3.5
  0
ARC
  5
E8
330
40C
100
AcDbEntity
  8
PATTERN_FILL
  6
Continuous
 62
     7
100
AcDbCircle
 10
-479.8523763549834
 20
-320.0
 30
0.0
 40
3.500000000000016
100
AcDbArc
 50
163.1764335344526
 51
294.3320633069025
  0
CIRCLE
  5
E9
330
40C
100
AcDbEntity
  8
PATTERN_FILL
  6
Continuous
 62
     7
100
AcDbCircle
 10
-489.8523763549834
 20
-320.0
 30
0.0
 40
3.5
  0
CIRCLE
  5
EA
330
40C
100
AcDbEntity
  8
PATTERN_FILL
  6
Continuous
 62
     7
100
AcDbCircle
 10
-499.8523763549834
 20
-320.0
 30
0.0
 40
3.5
  0
CIRCLE
  5
EB
330
40C
100
AcDbEntity
  8
PATTERN_FILL
  6
Continuous
 62
     7
100
AcDbCircle
 10
-509.8523763549834
 20
-320.0
 30
0.0
 40
3.5
  0
CIRCLE
  5
EC
330
40C
100
AcDbEntity
  8
PATTERN_FILL
  6
Continuous
 62
     7
100
AcDbCircle
 10
-519.8523763549834
 20
-320.0
 30
0.0
 40
3.5
  0
CIRCLE
  5
ED
330
40C
100
AcDbEntity
  8
PATTERN_FILL
  6
Continuous
 62
     7
100
AcDbCircle
 10
-529.8523763549834
 20
-320.0
 30
0.0
 40
3.5
  0
CIRCLE
  5
EE
330
40C
100
AcDbEntity
  8
PATTERN_FILL
  6
Continuous
 62
     7
100
AcDbCircle
 10
-539.8523763549834
 20
-320.0
 30
0.0
 40
3.5
  0
CIRCLE
  5
EF
330
40C
100
AcDbEntity
  8
PATTERN_FILL
  6
Continuous
 62
     7
100
AcDbCircle
 10
-559.8523763549834
 20
-320.0
 30
0.0
 40
3.5
  0
CIRCLE
  5
F0
330
40C
100
AcDbEntity
  8
PATTERN_FILL
  6
Continuous
 62
     7
100
AcDbCircle
 10
-569.8523763549835
 20
-320.0
 30
0.0
 40
3.5
  0
CIRCLE
  5
F1
330
40C
100
AcDbEntity
  8
PATTERN_FILL
  6
Continuous
 62
     7
100
AcDbCircle
 10
-579.8523763549836
 20
-320.0
 30
0.0
 40
3.5
  0
CIRCLE
  5
F2
330
40C
100
AcDbEntity
  8
PATTERN_FILL
  6
Continuous
 62
     7
100
AcDbCircle
 10
-589.8523763549835
 20
-320.0
 30
0.0
 40
3.5
  0
CIRCLE
  5
F3
330
40C
100
AcDbEntity
  8
PATTERN_FILL
  6
Continuous
 62
     7
100
AcDbCircle
 10
-599.8523763549835
 20
-320.0
 30
0.0
 40
3.5
  0
CIRCLE
  5
F4
330
40C
100
AcDbEntity
  8
PATTERN_FILL
  6
Continuous
 62
     7
100
AcDbCircle
 10
-609.8523763549835
 20
-320.0
 30
0.0
 40
3.5
  0
ARC
  5
F5
330
40C
100
AcDbEntity
  8
PATTERN_FILL
  6
Continuous
 62
     7
100
AcDbCircle
 10
-619.8523763549835
 20
-320.0
 30
0.0
 40
3.499999999999932
100
AcDbArc
 50
242.141092857928
 51
20.1108856052235
  0
CIRCLE
  5
F6
330
40C
100
AcDbEntity
  8
PATTERN_FILL
  6
Continuous
 62
     7
100
AcDbCircle
 10
-549.8523763549834
 20
-320.0
 30
0.0
 40
3.5
  0
ARC
  5
F7
330
40C
100
AcDbEntity
  8
PATTERN_FILL
  6
Continuous
 62
     7
100
AcDbCircle
 10
-499.8523763549834
 20
-310.0
 30
0.0
 40
3.500000000000015
100
AcDbArc
 50
117.3821278895376
 51
4.365133920832832
  0
CIRCLE
  5
F8
330
40C
100
AcDbEntity
  8
PATTERN_FILL
  6
Continuous
 62
     7
100
AcDbCircle
 10
-509.8523763549834
 20
-310.0
 30
0.0
 40
3.5
  0
CIRCLE
  5
F9
330
40C
100
AcDbEntity
  8
PATTERN_FILL
  6
Continuous
 62
     7
100
AcDbCircle
 10
-519.8523763549834
 20
-310.0
 30
0.0
 40
3.5
  0
CIRCLE
  5
FA
330
40C
100
AcDbEntity
  8
PATTERN_FILL
  6
Continuous
 62
     7
100
AcDbCircle
 10
-529.8523763549834
 20
-310.0
 30
0.0
 40
3.5
  0
CIRCLE
  5
FB
330
40C
100
AcDbEntity
  8
PATTERN_FILL
  6
Continuous
 62
     7
100
AcDbCircle
 10
-539.8523763549834
 20
-310.0
 30
0.0
 40
3.5
  0
CIRCLE
  5
FC
330
40C
100
AcDbEntity
  8
PATTERN_FILL
  6
Continuous
 62
     7
100
AcDbCircle
 10
-559.8523763549834
 20
-310.0
 30
0.0
 40
3.5
  0
CIRCLE
  5
FD
330
40C
100
AcDbEntity
  8
PATTERN_FILL
  6
Continuous
 62
     7
100
AcDbCircle
 10
-569.8523763549835
 20
-310.0
 30
0.0
 40
3.5
  0
CIRCLE
  5
FE
330
40C
100
AcDbEntity
  8
PATTERN_FILL
  6
Continuous
 62
     7
100
AcDbCircle
 10
-579.8523763549836
 20
-310.0
 30
0.0
 40
3.5
  0
CIRCLE
  5
FF
330
40C
100
AcDbEntity
  8
PATTERN_FILL
  6
Continuous
 62
     7
100
AcDbCircle
 10
-589.8523763549835
 20
-310.0
 30
0.0
 40
3.5
  0
ARC
  5
100
330
40C
100
AcDbEntity
  8
PATTERN_FILL
  6
Continuous
 62
     7
100
AcDbCircle
 10
-599.8523763549835
 20
-310.0
 30
0.0
 40
3.499999999999992
100
AcDbArc
 50
172.5714166088018
 51
65.39406156804133
  0
CIRCLE
  5
101
330
40C
100
AcDbEntity
  8
PATTERN_FILL
  6
Continuous
 62
     7
100
AcDbCircle
 10
-549.8523763549834
 20
-310.0
 30
0.0
 40
3.5
  0
ARC
  5
102
330
40C
100
AcDbEntity
  8
PATTERN_FILL
  6
Continuous
 62
     7
100
AcDbCircle
 10
-509.8523763549834
 20
-300.0
 30
0.0
 40
3.500000000000015
100
AcDbArc
 50
210.7068077834993
 51
285.5446162813851
  0
ARC
  5
103
330
40C
100
AcDbEntity
  8
PATTERN_FILL
  6
Continuous
 62
     7
100
AcDbCircle
 10
-519.8523763549834
 20
-300.0
 30
0.0
 40
3.500000000000029
100
AcDbArc
 50
155.0554873755047
 51
351.3908907355108
  0
ARC
  5
104
330
40C
100
AcDbEntity
  8
PATTERN_FILL
  6
Continuous
 62
     7
100
AcDbCircle
 10
-529.8523763549834
 20
-300.0
 30
0.0
 40
3.500000000000053
100
AcDbArc
 50
110.4173346298518
 51
46.80018877589367
  0
CIRCLE
  5
105
330
40C
100
AcDbEntity
  8
PATTERN_FILL
  6
Continuous
 62
     7
100
AcDbCircle
 10
-539.8523763549834
 20
-300.0
 30
0.0
 40
3.5
  0
CIRCLE
  5
106
330
40C
100
AcDbEntity
  8
PATTERN_FILL
  6
Continuous
 62
     7
100
AcDbCircle
 10
-559.8523763549834
 20
-300.0
 30
0.0
 40
3.5
  0
ARC
  5
107
330
40C
100
AcDbEntity
  8
PATTERN_FILL
  6
Continuous
 62
     7
100
AcDbCircle
 10
-569.8523763549835
 20
-300.0
 30
0.0
 40
3.500000000000038
100
AcDbArc
 50
131.134549794471
 51
71.32261115297281
  0
ARC
  5
108
330
40C
100
AcDbEntity
  8
PATTERN_FILL
  6
Continuous
 62
     7
100
AcDbCircle
 10
-579.8523763549836
 20
-300.0
 30
0.0
 40
3.499999999999945
100
AcDbArc
 50
187.0409548202973
 51
26.20227411307189
  0
ARC
  5
109
330
40C
100
AcDbEntity
  8
PATTERN_FILL
  6
Continuous
 62
     7
100
AcDbCircle
 10
-589.8523763549835
 20
-300.0
 30
0.0
 40
3.499999999999949
100
AcDbArc
 50
251.5179873994822
 51
331.9389261410981
  0
CIRCLE
  5
10A
330
40C
100
AcDbEntity
  8
PATTERN_FILL
  6
Continuous
 62
     7
100
AcDbCircle
 10
-549.8523763549834
 20
-300.0
 30
0.0
 40
3.5
  0
CIRCLE
  5
10B
330
40C
100
AcDbEntity
  8
PATTERN_FILL
  6
Continuous
 62
     7
100
AcDbCircle
 10
-449.8523763549834
 20
-410.0
 30
0.0
 40
3.5
  0
CIRCLE
  5
10C
330
40C
100
AcDbEntity
  8
PATTERN_FILL
  6
Continuous
 62
     7
100
AcDbCircle
 10
-459.8523763549834
 20
-410.0
 30
0.0
 40
3.5
  0
CIRCLE
  5
10D
330
40C
100
AcDbEntity
  8
PATTERN_FILL
  6
Continuous
 62
     7
100
AcDbCircle
 10
-469.8523763549834
 20
-410.0
 30
0.0
 40
3.5
  0
CIRCLE
  5
10E
330
40C
100
AcDbEntity
  8
PATTERN_FILL
  6
Continuous
 62
     7
100
AcDbCircle
 10
-479.8523763549834
 20
-410.0
 30
0.0
 40
3.5
  0
CIRCLE
  5
10F
330
40C
100
AcDbEntity
  8
PATTERN_FILL
  6
Continuous
 62
     7
100
AcDbCircle
 10
-489.8523763549834
 20
-410.0
 30
0.0
 40
3.5
  0
CIRCLE
  5
110
330
40C
100
AcDbEntity
  8
PATTERN_FILL
  6
Continuous
 62
     7
100
AcDbCircle
 10
-499.8523763549834
 20
-410.0
 30
0.0
 40
3.5
  0
CIRCLE
  5
111
330
40C
100
AcDbEntity
  8
PATTERN_FILL
  6
Continuous
 62
     7
100
AcDbCircle
 10
-509.8523763549834
 20
-410.0
 30
0.0
 40
3.5
  0
CIRCLE
  5
112
330
40C
100
AcDbEntity
  8
PATTERN_FILL
  6
Continuous
 62
     7
100
AcDbCircle
 10
-519.8523763549834
 20
-410.0
 30
0.0
 40
3.5
  0
CIRCLE
  5
113
330
40C
100
AcDbEntity
  8
PATTERN_FILL
  6
Continuous
 62
     7
100
AcDbCircle
 10
-529.8523763549834
 20
-410.0
 30
0.0
 40
3.5
  0
CIRCLE
  5
114
330
40C
100
AcDbEntity
  8
PATTERN_FILL
  6
Continuous
 62
     7
100
AcDbCircle
 10
-539.8523763549834
 20
-410.0
 30
0.0
 40
3.5
  0
CIRCLE
  5
115
330
40C
100
AcDbEntity
  8
PATTERN_FILL
  6
Continuous
 62
     7
100
AcDbCircle
 10
-559.8523763549834
 20
-410.0
 30
0.0
 40
3.5
  0
CIRCLE
  5
116
330
40C
100
AcDbEntity
  8
PATTERN_FILL
  6
Continuous
 62
     7
100
AcDbCircle
 10
-569.8523763549835
 20
-410.0
 30
0.0
 40
3.5
  0
CIRCLE
  5
117
330
40C
100
AcDbEntity
  8
PATTERN_FILL
  6
Continuous
 62
     7
100
AcDbCircle
 10
-579.8523763549836
 20
-410.0
 30
0.0
 40
3.5
  0
CIRCLE
  5
118
330
40C
100
AcDbEntity
  8
PATTERN_FILL
  6
Continuous
 62
     7
100
AcDbCircle
 10
-589.8523763549835
 20
-410.0
 30
0.0
 40
3.5
  0
CIRCLE
  5
119
330
40C
100
AcDbEntity
  8
PATTERN_FILL
  6
Continuous
 62
     7
100
AcDbCircle
 10
-599.8523763549835
 20
-410.0
 30
0.0
 40
3.5
  0
CIRCLE
  5
11A
330
40C
100
AcDbEntity
  8
PATTERN_FILL
  6
Continuous
 62
     7
100
AcDbCircle
 10
-609.8523763549835
 20
-410.0
 30
0.0
 40
3.5
  0
CIRCLE
  5
11B
330
40C
100
AcDbEntity
  8
PATTERN_FILL
  6
Continuous
 62
     7
100
AcDbCircle
 10
-619.8523763549835
 20
-410.0
 30
0.0
 40
3.5
  0
CIRCLE
  5
11C
330
40C
100
AcDbEntity
  8
PATTERN_FILL
  6
Continuous
 62
     7
100
AcDbCircle
 10
-629.8523763549836
 20
-410.0
 30
0.0
 40
3.5
  0
CIRCLE
  5
11D
330
40C
100
AcDbEntity
  8
PATTERN_FILL
  6
Continuous
 62
     7
100
AcDbCircle
 10
-639.8523763549835
 20
-410.0
 30
0.0
 40
3.5
  0
CIRCLE
  5
11E
330
40C
100
AcDbEntity
  8
PATTERN_FILL
  6
Continuous
 62
     7
100
AcDbCircle
 10
-649.8523763549835
 20
-410.0
 30
0.0
 40
3.5
  0
ARC
  5
11F
330
40C
100
AcDbEntity
  8
PATTERN_FILL
  6
Continuous
 62
     7
100
AcDbCircle
 10
-549.8523763549832
 20
-410.0
 30
0.0
 40
3.500000000000054
100
AcDbArc
 50
114.056650240069
 51
65.94334975993439
  0
ARC
  5
120
330
40C
100
AcDbEntity
  8
PATTERN_FILL
  6
Continuous
 62
     7
100
AcDbCircle
 10
-449.8523763549834
 20
-420.0
 30
0.0
 40
3.499999999999994
100
AcDbArc
 50
24.03871743522768
 51
313.3739030880001
  0
CIRCLE
  5
121
330
40C
100
AcDbEntity
  8
PATTERN_FILL
  6
Continuous
 62
     7
100
AcDbCircle
 10
-459.8523763549834
 20
-420.0
 30
0.0
 40
3.5
  0
CIRCLE
  5
122
330
40C
100
AcDbEntity
  8
PATTERN_FILL
  6
Continuous
 62
     7
100
AcDbCircle
 10
-469.8523763549834
 20
-420.0
 30
0.0
 40
3.5
  0
CIRCLE
  5
123
330
40C
100
AcDbEntity
  8
PATTERN_FILL
  6
Continuous
 62
     7
100
AcDbCircle
 10
-479.8523763549834
 20
-420.0
 30
0.0
 40
3.5
  0
CIRCLE
  5
124
330
40C
100
AcDbEntity
  8
PATTERN_FILL
  6
Continuous
 62
     7
100
AcDbCircle
 10
-489.8523763549834
 20
-420.0
 30
0.0
 40
3.5
  0
CIRCLE
  5
125
330
40C
100
AcDbEntity
  8
PATTERN_FILL
  6
Continuous
 62
     7
100
AcDbCircle
 10
-499.8523763549834
 20
-420.0
 30
0.0
 40
3.5
  0
CIRCLE
  5
126
330
40C
100
AcDbEntity
  8
PATTERN_FILL
  6
Continuous
 62
     7
100
AcDbCircle
 10
-509.8523763549834
 20
-420.0
 30
0.0
 40
3.5
  0
CIRCLE
  5
127
330
40C
100
AcDbEntity
  8
PATTERN_FILL
  6
Continuous
 62
     7
100
AcDbCircle
 10
-519.8523763549834
 20
-420.0
 30
0.0
 40
3.5
  0
CIRCLE
  5
128
330
40C
100
AcDbEntity
  8
PATTERN_FILL
  6
Continuous
 62
     7
100
AcDbCircle
 10
-529.8523763549834
 20
-420.0
 30
0.0
 40
3.5
  0
CIRCLE
  5
129
330
40C
100
AcDbEntity
  8
PATTERN_FILL
  6
Continuous
 62
     7
100
AcDbCircle
 10
-539.8523763549834
 20
-420.0
 30
0.0
 40
3.5
  0
CIRCLE
  5
12A
330
40C
100
AcDbEntity
  8
PATTERN_FILL
  6
Continuous
 62
     7
100
AcDbCircle
 10
-559.8523763549834
 20
-420.0
 30
0.0
 40
3.5
  0
CIRCLE
  5
12B
330
40C
100
AcDbEntity
  8
PATTERN_FILL
  6
Continuous
 62
     7
100
AcDbCircle
 10
-569.8523763549835
 20
-420.0
 30
0.0
 40
3.5
  0
CIRCLE
  5
12C
330
40C
100
AcDbEntity
  8
PATTERN_FILL
  6
Continuous
 62
     7
100
AcDbCircle
 10
-579.8523763549836
 20
-420.0
 30
0.0
 40
3.5
  0
CIRCLE
  5
12D
330
40C
100
AcDbEntity
  8
PATTERN_FILL
  6
Continuous
 62
     7
100
AcDbCircle
 10
-589.8523763549835
 20
-420.0
 30
0.0
 40
3.5
  0
CIRCLE
  5
12E
330
40C
100
AcDbEntity
  8
PATTERN_FILL
  6
Continuous
 62
     7
100
AcDbCircle
 10
-599.8523763549835
 20
-420.0
 30
0.0
 40
3.5
  0
CIRCLE
  5
12F
330
40C
100
AcDbEntity
  8
PATTERN_FILL
  6
Continuous
 62
     7
100
AcDbCircle
 10
-609.8523763549835
 20
-420.0
 30
0.0
 40
3.5
  0
CIRCLE
  5
130
330
40C
100
AcDbEntity
  8
PATTERN_FILL
  6
Continuous
 62
     7
100
AcDbCircle
 10
-619.8523763549835
 20
-420.0
 30
0.0
 40
3.5
  0
CIRCLE
  5
131
330
40C
100
AcDbEntity
  8
PATTERN_FILL
  6
Continuous
 62
     7
100
AcDbCircle
 10
-629.8523763549836
 20
-420.0
 30
0.0
 40
3.5
  0
CIRCLE
  5
132
330
40C
100
AcDbEntity
  8
PATTERN_FILL
  6
Continuous
 62
     7
100
AcDbCircle
 10
-639.8523763549835
 20
-420.0
 30
0.0
 40
3.5
  0
ARC
  5
133
330
40C
100
AcDbEntity
  8
PATTERN_FILL
  6
Continuous
 62
     7
100
AcDbCircle
 10
-649.8523763549835
 20
-420.0
 30
0.0
 40
3.500000000000015
100
AcDbArc
 50
217.0409214793685
 51
165.611521294562
  0
CIRCLE
  5
134
330
40C
100
AcDbEntity
  8
PATTERN_FILL
  6
Continuous
 62
     7
100
AcDbCircle
 10
-549.8523763549834
 20
-420.0
 30
0.0
 40
3.5
  0
ARC
  5
135
330
40C
100
AcDbEntity
  8
PATTERN_FILL
  6
Continuous
 62
     7
100
AcDbCircle
 10
-449.8523763549834
 20
-430.0
 30
0.0
 40
3.499999999999976
100
AcDbArc
 50
66.79562821979209
 51
259.8523793021607
  0
CIRCLE
  5
136
330
40C
100
AcDbEntity
  8
PATTERN_FILL
  6
Continuous
 62
     7
100
AcDbCircle
 10
-459.8523763549834
 20
-430.0
 30
0.0
 40
3.5
  0
CIRCLE
  5
137
330
40C
100
AcDbEntity
  8
PATTERN_FILL
  6
Continuous
 62
     7
100
AcDbCircle
 10
-469.8523763549834
 20
-430.0
 30
0.0
 40
3.5
  0
CIRCLE
  5
138
330
40C
100
AcDbEntity
  8
PATTERN_FILL
  6
Continuous
 62
     7
100
AcDbCircle
 10
-479.8523763549834
 20
-430.0
 30
0.0
 40
3.5
  0
CIRCLE
  5
139
330
40C
100
AcDbEntity
  8
PATTERN_FILL
  6
Continuous
 62
     7
100
AcDbCircle
 10
-489.8523763549834
 20
-430.0
 30
0.0
 40
3.5
  0
CIRCLE
  5
13A
330
40C
100
AcDbEntity
  8
PATTERN_FILL
  6
Continuous
 62
     7
100
AcDbCircle
 10
-499.8523763549834
 20
-430.0
 30
0.0
 40
3.5
  0
CIRCLE
  5
13B
330
40C
100
AcDbEntity
  8
PATTERN_FILL
  6
Continuous
 62
     7
100
AcDbCircle
 10
-509.8523763549834
 20
-430.0
 30
0.0
 40
3.5
  0
CIRCLE
  5
13C
330
40C
100
AcDbEntity
  8
PATTERN_FILL
  6
Continuous
 62
     7
100
AcDbCircle
 10
-519.8523763549834
 20
-430.0
 30
0.0
 40
3.5
  0
CIRCLE
  5
13D
330
40C
100
AcDbEntity
  8
PATTERN_FILL
  6
Continuous
 62
     7
100
AcDbCircle
 10
-529.8523763549834
 20
-430.0
 30
0.0
 40
3.5
  0
CIRCLE
  5
13E
330
40C
100
AcDbEntity
  8
PATTERN_FILL
  6
Continuous
 62
     7
100
AcDbCircle
 10
-539.8523763549834
 20
-430.0
 30
0.0
 40
3.5
  0
CIRCLE
  5
13F
330
40C
100
AcDbEntity
  8
PATTERN_FILL
  6
Continuous
 62
     7
100
AcDbCircle
 10
-559.8523763549834
 20
-430.0
 30
0.0
 40
3.5
  0
CIRCLE
  5
140
330
40C
100
AcDbEntity
  8
PATTERN_FILL
  6
Continuous
 62
     7
100
AcDbCircle
 10
-569.8523763549835
 20
-430.0
 30
0.0
 40
3.5
  0
CIRCLE
  5
141
330
40C
100
AcDbEntity
  8
PATTERN_FILL
  6
Continuous
 62
     7
100
AcDbCircle
 10
-579.8523763549836
 20
-430.0
 30
0.0
 40
3.5
  0
CIRCLE
  5
142
330
40C
100
AcDbEntity
  8
PATTERN_FILL
  6
Continuous
 62
     7
100
AcDbCircle
 10
-589.8523763549835
 20
-430.0
 30
0.0
 40
3.5
  0
CIRCLE
  5
143
330
40C
100
AcDbEntity
  8
PATTERN_FILL
  6
Continuous
 62
     7
100
AcDbCircle
 10
-599.8523763549835
 20
-430.0
 30
0.0
 40
3.5
  0
CIRCLE
  5
144
330
40C
100
AcDbEntity
  8
PATTERN_FILL
  6
Continuous
 62
     7
100
AcDbCircle
 10
-609.8523763549835
 20
-430.0
 30
0.0
 40
3.5
  0
CIRCLE
  5
145
330
40C
100
AcDbEntity
  8
PATTERN_FILL
  6
Continuous
 62
     7
100
AcDbCircle
 10
-619.8523763549835
 20
-430.0
 30
0.0
 40
3.5
  0
CIRCLE
  5
146
330
40C
100
AcDbEntity
  8
PATTERN_FILL
  6
Continuous
 62
     7
100
AcDbCircle
 10
-629.8523763549836
 20
-430.0
 30
0.0
 40
3.5
  0
CIRCLE
  5
147
330
40C
100
AcDbEntity
  8
PATTERN_FILL
  6
Continuous
 62
     7
100
AcDbCircle
 10
-639.8523763549835
 20
-430.0
 30
0.0
 40
3.5
  0
ARC
  5
148
330
40C
100
AcDbEntity
  8
PATTERN_FILL
  6
Continuous
 62
     7
100
AcDbCircle
 10
-649.8523763549835
 20
-430.0
 30
0.0
 40
3.499999999999974
100
AcDbArc
 50
275.4829744555163
 51
117.9621361164574
  0
CIRCLE
  5
149
330
40C
100
AcDbEntity
  8
PATTERN_FILL
  6
Continuous
 62
     7
100
AcDbCircle
 10
-549.8523763549834
 20
-430.0
 30
0.0
 40
3.5
  0
CIRCLE
  5
14A
330
40C
100
AcDbEntity
  8
PATTERN_FILL
  6
Continuous
 62
     7
100
AcDbCircle
 10
-459.8523763549834
 20
-440.0
 30
0.0
 40
3.5
  0
CIRCLE
  5
14B
330
40C
100
AcDbEntity
  8
PATTERN_FILL
  6
Continuous
 62
     7
100
AcDbCircle
 10
-469.8523763549834
 20
-440.0
 30
0.0
 40
3.5
  0
CIRCLE
  5
14C
330
40C
100
AcDbEntity
  8
PATTERN_FILL
  6
Continuous
 62
     7
100
AcDbCircle
 10
-479.8523763549834
 20
-440.0
 30
0.0
 40
3.5
  0
CIRCLE
  5
14D
330
40C
100
AcDbEntity
  8
PATTERN_FILL
  6
Continuous
 62
     7
100
AcDbCircle
 10
-489.8523763549834
 20
-440.0
 30
0.0
 40
3.5
  0
CIRCLE
  5
14E
330
40C
100
AcDbEntity
  8
PATTERN_FILL
  6
Continuous
 62
     7
100
AcDbCircle
 10
-499.8523763549834
 20
-440.0
 30
0.0
 40
3.5
  0
CIRCLE
  5
14F
330
40C
100
AcDbEntity
  8
PATTERN_FILL
  6
Continuous
 62
     7
100
AcDbCircle
 10
-509.8523763549834
 20
-440.0
 30
0.0
 40
3.5
  0
CIRCLE
  5
150
330
40C
100
AcDbEntity
  8
PATTERN_FILL
  6
Continuous
 62
     7
100
AcDbCircle
 10
-519.8523763549834
 20
-440.0
 30
0.0
 40
3.5
  0
CIRCLE
  5
151
330
40C
100
AcDbEntity
  8
PATTERN_FILL
  6
Continuous
 62
     7
100
AcDbCircle
 10
-529.8523763549834
 20
-440.0
 30
0.0
 40
3.5
  0
CIRCLE
  5
152
330
40C
100
AcDbEntity
  8
PATTERN_FILL
  6
Continuous
 62
     7
100
AcDbCircle
 10
-539.8523763549834
 20
-440.0
 30
0.0
 40
3.5
  0
CIRCLE
  5
153
330
40C
100
AcDbEntity
  8
PATTERN_FILL
  6
Continuous
 62
     7
100
AcDbCircle
 10
-559.8523763549834
 20
-440.0
 30
0.0
 40
3.5
  0
CIRCLE
  5
154
330
40C
100
AcDbEntity
  8
PATTERN_FILL
  6
Continuous
 62
     7
100
AcDbCircle
 10
-569.8523763549835
 20
-440.0
 30
0.0
 40
3.5
  0
CIRCLE
  5
155
330
40C
100
AcDbEntity
  8
PATTERN_FILL
  6
Continuous
 62
     7
100
AcDbCircle
 10
-579.8523763549836
 20
-440.0
 30
0.0
 40
3.5
  0
CIRCLE
  5
156
330
40C
100
AcDbEntity
  8
PATTERN_FILL
  6
Continuous
 62
     7
100
AcDbCircle
 10
-589.8523763549835
 20
-440.0
 30
0.0
 40
3.5
  0
CIRCLE
  5
157
330
40C
100
AcDbEntity
  8
PATTERN_FILL
  6
Continuous
 62
     7
100
AcDbCircle
 10
-599.8523763549835
 20
-440.0
 30
0.0
 40
3.5
  0
CIRCLE
  5
158
330
40C
100
AcDbEntity
  8
PATTERN_FILL
  6
Continuous
 62
     7
100
AcDbCircle
 10
-609.8523763549835
 20
-440.0
 30
0.0
 40
3.5
  0
CIRCLE
  5
159
330
40C
100
AcDbEntity
  8
PATTERN_FILL
  6
Continuous
 62
     7
100
AcDbCircle
 10
-619.8523763549835
 20
-440.0
 30
0.0
 40
3.5
  0
CIRCLE
  5
15A
330
40C
100
AcDbEntity
  8
PATTERN_FILL
  6
Continuous
 62
     7
100
AcDbCircle
 10
-629.8523763549836
 20
-440.0
 30
0.0
 40
3.5
  0
CIRCLE
  5
15B
330
40C
100
AcDbEntity
  8
PATTERN_FILL
  6
Continuous
 62
     7
100
AcDbCircle
 10
-639.8523763549835
 20
-440.0
 30
0.0
 40
3.5
  0
ARC
  5
15C
330
40C
100
AcDbEntity
  8
PATTERN_FILL
  6
Continuous
 62
     7
100
AcDbCircle
 10
-649.8523763549835
 20
-440.0
 30
0.0
 40
3.500000000000052
100
AcDbArc
 50
339.624731960424
 51
64.03649383205793
  0
CIRCLE
  5
15D
330
40C
100
AcDbEntity
  8
PATTERN_FILL
  6
Continuous
 62
     7
100
AcDbCircle
 10
-549.8523763549834
 20
-440.0
 30
0.0
 40
3.5
  0
ARC
  5
15E
330
40C
100
AcDbEntity
  8
PATTERN_FILL
  6
Continuous
 62
     7
100
AcDbCircle
 10
-459.8523763549839
 20
-449.9999999999996
 30
0.0
 40
3.500000000000195
100
AcDbArc
 50
28.6318173514028
 51
273.3386689988593
  0
CIRCLE
  5
15F
330
40C
100
AcDbEntity
  8
PATTERN_FILL
  6
Continuous
 62
     7
100
AcDbCircle
 10
-469.8523763549834
 20
-450.0
 30
0.0
 40
3.5
  0
CIRCLE
  5
160
330
40C
100
AcDbEntity
  8
PATTERN_FILL
  6
Continuous
 62
     7
100
AcDbCircle
 10
-479.8523763549834
 20
-450.0
 30
0.0
 40
3.5
  0
CIRCLE
  5
161
330
40C
100
AcDbEntity
  8
PATTERN_FILL
  6
Continuous
 62
     7
100
AcDbCircle
 10
-489.8523763549834
 20
-450.0
 30
0.0
 40
3.5
  0
CIRCLE
  5
162
330
40C
100
AcDbEntity
  8
PATTERN_FILL
  6
Continuous
 62
     7
100
AcDbCircle
 10
-499.8523763549834
 20
-450.0
 30
0.0
 40
3.5
  0
CIRCLE
  5
163
330
40C
100
AcDbEntity
  8
PATTERN_FILL
  6
Continuous
 62
     7
100
AcDbCircle
 10
-509.8523763549834
 20
-450.0
 30
0.0
 40
3.5
  0
CIRCLE
  5
164
330
40C
100
AcDbEntity
  8
PATTERN_FILL
  6
Continuous
 62
     7
100
AcDbCircle
 10
-519.8523763549834
 20
-450.0
 30
0.0
 40
3.5
  0
CIRCLE
  5
165
330
40C
100
AcDbEntity
  8
PATTERN_FILL
  6
Continuous
 62
     7
100
AcDbCircle
 10
-529.8523763549834
 20
-450.0
 30
0.0
 40
3.5
  0
CIRCLE
  5
166
330
40C
100
AcDbEntity
  8
PATTERN_FILL
  6
Continuous
 62
     7
100
AcDbCircle
 10
-539.8523763549834
 20
-450.0
 30
0.0
 40
3.5
  0
CIRCLE
  5
167
330
40C
100
AcDbEntity
  8
PATTERN_FILL
  6
Continuous
 62
     7
100
AcDbCircle
 10
-559.8523763549834
 20
-450.0
 30
0.0
 40
3.5
  0
CIRCLE
  5
168
330
40C
100
AcDbEntity
  8
PATTERN_FILL
  6
Continuous
 62
     7
100
AcDbCircle
 10
-569.8523763549835
 20
-450.0
 30
0.0
 40
3.5
  0
CIRCLE
  5
169
330
40C
100
AcDbEntity
  8
PATTERN_FILL
  6
Continuous
 62
     7
100
AcDbCircle
 10
-579.8523763549836
 20
-450.0
 30
0.0
 40
3.5
  0
CIRCLE
  5
16A
330
40C
100
AcDbEntity
  8
PATTERN_FILL
  6
Continuous
 62
     7
100
AcDbCircle
 10
-589.8523763549835
 20
-450.0
 30
0.0
 40
3.5
  0
CIRCLE
  5
16B
330
40C
100
AcDbEntity
  8
PATTERN_FILL
  6
Continuous
 62
     7
100
AcDbCircle
 10
-599.8523763549835
 20
-450.0
 30
0.0
 40
3.5
  0
CIRCLE
  5
16C
330
40C
100
AcDbEntity
  8
PATTERN_FILL
  6
Continuous
 62
     7
100
AcDbCircle
 10
-609.8523763549835
 20
-450.0
 30
0.0
 40
3.5
  0
CIRCLE
  5
16D
330
40C
100
AcDbEntity
  8
PATTERN_FILL
  6
Continuous
 62
     7
100
AcDbCircle
 10
-619.8523763549835
 20
-450.0
 30
0.0
 40
3.5
  0
CIRCLE
  5
16E
330
40C
100
AcDbEntity
  8
PATTERN_FILL
  6
Continuous
 62
     7
100
AcDbCircle
 10
-629.8523763549836
 20
-450.0
 30
0.0
 40
3.5
  0
ARC
  5
16F
330
40C
100
AcDbEntity
  8
PATTERN_FILL
  6
Continuous
 62
     7
100
AcDbCircle
 10
-639.8523763549835
 20
-450.0
 30
0.0
 40
3.499999999999878
100
AcDbArc
 50
261.4821434726595
 51
156.7069593041851
  0
CIRCLE
  5
170
330
40C
100
AcDbEntity
  8
PATTERN_FILL
  6
Continuous
 62
     7
100
AcDbCircle
 10
-549.8523763549834
 20
-450.0
 30
0.0
 40
3.5
  0
CIRCLE
  5
171
330
40C
100
AcDbEntity
  8
PATTERN_FILL
  6
Continuous
 62
     7
100
AcDbCircle
 10
-469.8523763549834
 20
-460.0
 30
0.0
 40
3.5
  0
CIRCLE
  5
172
330
40C
100
AcDbEntity
  8
PATTERN_FILL
  6
Continuous
 62
     7
100
AcDbCircle
 10
-479.8523763549834
 20
-460.0
 30
0.0
 40
3.5
  0
CIRCLE
  5
173
330
40C
100
AcDbEntity
  8
PATTERN_FILL
  6
Continuous
 62
     7
100
AcDbCircle
 10
-489.8523763549834
 20
-460.0
 30
0.0
 40
3.5
  0
CIRCLE
  5
174
330
40C
100
AcDbEntity
  8
PATTERN_FILL
  6
Continuous
 62
     7
100
AcDbCircle
 10
-499.8523763549834
 20
-460.0
 30
0.0
 40
3.5
  0
CIRCLE
  5
175
330
40C
100
AcDbEntity
  8
PATTERN_FILL
  6
Continuous
 62
     7
100
AcDbCircle
 10
-509.8523763549834
 20
-460.0
 30
0.0
 40
3.5
  0
CIRCLE
  5
176
330
40C
100
AcDbEntity
  8
PATTERN_FILL
  6
Continuous
 62
     7
100
AcDbCircle
 10
-519.8523763549834
 20
-460.0
 30
0.0
 40
3.5
  0
CIRCLE
  5
177
330
40C
100
AcDbEntity
  8
PATTERN_FILL
  6
Continuous
 62
     7
100
AcDbCircle
 10
-529.8523763549834
 20
-460.0
 30
0.0
 40
3.5
  0
CIRCLE
  5
178
330
40C
100
AcDbEntity
  8
PATTERN_FILL
  6
Continuous
 62
     7
100
AcDbCircle
 10
-539.8523763549834
 20
-460.0
 30
0.0
 40
3.5
  0
CIRCLE
  5
179
330
40C
100
AcDbEntity
  8
PATTERN_FILL
  6
Continuous
 62
     7
100
AcDbCircle
 10
-559.8523763549834
 20
-460.0
 30
0.0
 40
3.5
  0
CIRCLE
  5
17A
330
40C
100
AcDbEntity
  8
PATTERN_FILL
  6
Continuous
 62
     7
100
AcDbCircle
 10
-569.8523763549835
 20
-460.0
 30
0.0
 40
3.5
  0
CIRCLE
  5
17B
330
40C
100
AcDbEntity
  8
PATTERN_FILL
  6
Continuous
 62
     7
100
AcDbCircle
 10
-579.8523763549836
 20
-460.0
 30
0.0
 40
3.5
  0
CIRCLE
  5
17C
330
40C
100
AcDbEntity
  8
PATTERN_FILL
  6
Continuous
 62
     7
100
AcDbCircle
 10
-589.8523763549835
 20
-460.0
 30
0.0
 40
3.5
  0
CIRCLE
  5
17D
330
40C
100
AcDbEntity
  8
PATTERN_FILL
  6
Continuous
 62
     7
100
AcDbCircle
 10
-599.8523763549835
 20
-460.0
 30
0.0
 40
3.5
  0
CIRCLE
  5
17E
330
40C
100
AcDbEntity
  8
PATTERN_FILL
  6
Continuous
 62
     7
100
AcDbCircle
 10
-609.8523763549835
 20
-460.0
 30
0.0
 40
3.5
  0
CIRCLE
  5
17F
330
40C
100
AcDbEntity
  8
PATTERN_FILL
  6
Continuous
 62
     7
100
AcDbCircle
 10
-619.8523763549835
 20
-460.0
 30
0.0
 40
3.5
  0
CIRCLE
  5
180
330
40C
100
AcDbEntity
  8
PATTERN_FILL
  6
Continuous
 62
     7
100
AcDbCircle
 10
-629.8523763549836
 20
-460.0
 30
0.0
 40
3.5
  0
ARC
  5
181
330
40C
100
AcDbEntity
  8
PATTERN_FILL
  6
Continuous
 62
     7
100
AcDbCircle
 10
-639.8523763549835
 20
-460.0
 30
0.0
 40
3.499999999999976
100
AcDbArc
 50
4.611724438339136
 51
62.85526011080679
  0
CIRCLE
  5
182
330
40C
100
AcDbEntity
  8
PATTERN_FILL
  6
Continuous
 62
     7
100
AcDbCircle
 10
-549.8523763549834
 20
-460.0
 30
0.0
 40
3.5
  0
ARC
  5
183
330
40C
100
AcDbEntity
  8
PATTERN_FILL
  6
Continuous
 62
     7
100
AcDbCircle
 10
-469.8523763549834
 20
-470.0
 30
0.0
 40
3.50000000000002
100
AcDbArc
 50
73.53486738549239
 51
204.1979648525571
  0
CIRCLE
  5
184
330
40C
100
AcDbEntity
  8
PATTERN_FILL
  6
Continuous
 62
     7
100
AcDbCircle
 10
-479.8523763549834
 20
-470.0
 30
0.0
 40
3.5
  0
CIRCLE
  5
185
330
40C
100
AcDbEntity
  8
PATTERN_FILL
  6
Continuous
 62
     7
100
AcDbCircle
 10
-489.8523763549834
 20
-470.0
 30
0.0
 40
3.5
  0
CIRCLE
  5
186
330
40C
100
AcDbEntity
  8
PATTERN_FILL
  6
Continuous
 62
     7
100
AcDbCircle
 10
-499.8523763549834
 20
-470.0
 30
0.0
 40
3.5
  0
CIRCLE
  5
187
330
40C
100
AcDbEntity
  8
PATTERN_FILL
  6
Continuous
 62
     7
100
AcDbCircle
 10
-509.8523763549834
 20
-470.0
 30
0.0
 40
3.5
  0
CIRCLE
  5
188
330
40C
100
AcDbEntity
  8
PATTERN_FILL
  6
Continuous
 62
     7
100
AcDbCircle
 10
-519.8523763549834
 20
-470.0
 30
0.0
 40
3.5
  0
CIRCLE
  5
189
330
40C
100
AcDbEntity
  8
PATTERN_FILL
  6
Continuous
 62
     7
100
AcDbCircle
 10
-529.8523763549834
 20
-470.0
 30
0.0
 40
3.5
  0
CIRCLE
  5
18A
330
40C
100
AcDbEntity
  8
PATTERN_FILL
  6
Continuous
 62
     7
100
AcDbCircle
 10
-539.8523763549834
 20
-470.0
 30
0.0
 40
3.5
  0
CIRCLE
  5
18B
330
40C
100
AcDbEntity
  8
PATTERN_FILL
  6
Continuous
 62
     7
100
AcDbCircle
 10
-559.8523763549834
 20
-470.0
 30
0.0
 40
3.5
  0
CIRCLE
  5
18C
330
40C
100
AcDbEntity
  8
PATTERN_FILL
  6
Continuous
 62
     7
100
AcDbCircle
 10
-569.8523763549835
 20
-470.0
 30
0.0
 40
3.5
  0
CIRCLE
  5
18D
330
40C
100
AcDbEntity
  8
PATTERN_FILL
  6
Continuous
 62
     7
100
AcDbCircle
 10
-579.8523763549836
 20
-470.0
 30
0.0
 40
3.5
  0
CIRCLE
  5
18E
330
40C
100
AcDbEntity
  8
PATTERN_FILL
  6
Continuous
 62
     7
100
AcDbCircle
 10
-589.8523763549835
 20
-470.0
 30
0.0
 40
3.5
  0
CIRCLE
  5
18F
330
40C
100
AcDbEntity
  8
PATTERN_FILL
  6
Continuous
 62
     7
100
AcDbCircle
 10
-599.8523763549835
 20
-470.0
 30
0.0
 40
3.5
  0
CIRCLE
  5
190
330
40C
100
AcDbEntity
  8
PATTERN_FILL
  6
Continuous
 62
     7
100
AcDbCircle
 10
-609.8523763549835
 20
-470.0
 30
0.0
 40
3.5
  0
CIRCLE
  5
191
330
40C
100
AcDbEntity
  8
PATTERN_FILL
  6
Continuous
 62
     7
100
AcDbCircle
 10
-619.8523763549835
 20
-470.0
 30
0.0
 40
3.5
  0
ARC
  5
192
330
40C
100
AcDbEntity
  8
PATTERN_FILL
  6
Continuous
 62
     7
100
AcDbCircle
 10
-629.8523763549836
 20
-470.0
 30
0.0
 40
3.500000000000011
100
AcDbArc
 50
332.0127636318499
 51
110.4639883101961
  0
CIRCLE
  5
193
330
40C
100
AcDbEntity
  8
PATTERN_FILL
  6
Continuous
 62
     7
100
AcDbCircle
 10
-549.8523763549834
 20
-470.0
 30
0.0
 40
3.5
  0
ARC
  5
194
330
40C
100
AcDbEntity
  8
PATTERN_FILL
  6
Continuous
 62
     7
100
AcDbCircle
 10
-479.8523763549834
 20
-480.0
 30
0.0
 40
3.500000000000013
100
AcDbArc
 50
65.66793669309753
 51
196.8235664655456
  0
CIRCLE
  5
195
330
40C
100
AcDbEntity
  8
PATTERN_FILL
  6
Continuous
 62
     7
100
AcDbCircle
 10
-489.8523763549834
 20
-480.0
 30
0.0
 40
3.5
  0
CIRCLE
  5
196
330
40C
100
AcDbEntity
  8
PATTERN_FILL
  6
Continuous
 62
     7
100
AcDbCircle
 10
-499.8523763549834
 20
-480.0
 30
0.0
 40
3.5
  0
CIRCLE
  5
197
330
40C
100
AcDbEntity
  8
PATTERN_FILL
  6
Continuous
 62
     7
100
AcDbCircle
 10
-509.8523763549834
 20
-480.0
 30
0.0
 40
3.5
  0
CIRCLE
  5
198
330
40C
100
AcDbEntity
  8
PATTERN_FILL
  6
Continuous
 62
     7
100
AcDbCircle
 10
-519.8523763549834
 20
-480.0
 30
0.0
 40
3.5
  0
CIRCLE
  5
199
330
40C
100
AcDbEntity
  8
PATTERN_FILL
  6
Continuous
 62
     7
100
AcDbCircle
 10
-529.8523763549834
 20
-480.0
 30
0.0
 40
3.5
  0
CIRCLE
  5
19A
330
40C
100
AcDbEntity
  8
PATTERN_FILL
  6
Continuous
 62
     7
100
AcDbCircle
 10
-539.8523763549834
 20
-480.0
 30
0.0
 40
3.5
  0
CIRCLE
  5
19B
330
40C
100
AcDbEntity
  8
PATTERN_FILL
  6
Continuous
 62
     7
100
AcDbCircle
 10
-559.8523763549834
 20
-480.0
 30
0.0
 40
3.5
  0
CIRCLE
  5
19C
330
40C
100
AcDbEntity
  8
PATTERN_FILL
  6
Continuous
 62
     7
100
AcDbCircle
 10
-569.8523763549835
 20
-480.0
 30
0.0
 40
3.5
  0
CIRCLE
  5
19D
330
40C
100
AcDbEntity
  8
PATTERN_FILL
  6
Continuous
 62
     7
100
AcDbCircle
 10
-579.8523763549836
 20
-480.0
 30
0.0
 40
3.5
  0
CIRCLE
  5
19E
330
40C
100
AcDbEntity
  8
PATTERN_FILL
  6
Continuous
 62
     7
100
AcDbCircle
 10
-589.8523763549835
 20
-480.0
 30
0.0
 40
3.5
  0
CIRCLE
  5
19F
330
40C
100
AcDbEntity
  8
PATTERN_FILL
  6
Continuous
 62
     7
100
AcDbCircle
 10
-599.8523763549835
 20
-480.0
 30
0.0
 40
3.5
  0
CIRCLE
  5
1A0
330
40C
100
AcDbEntity
  8
PATTERN_FILL
  6
Continuous
 62
     7
100
AcDbCircle
 10
-609.8523763549835
 20
-480.0
 30
0.0
 40
3.5
  0
ARC
  5
1A1
330
40C
100
AcDbEntity
  8
PATTERN_FILL
  6
Continuous
 62
     7
100
AcDbCircle
 10
-619.8523763549835
 20
-480.0
 30
0.0
 40
3.49999999999995
100
AcDbArc
 50
339.8891143947765
 51
117.8589071420715
  0
CIRCLE
  5
1A2
330
40C
100
AcDbEntity
  8
PATTERN_FILL
  6
Continuous
 62
     7
100
AcDbCircle
 10
-549.8523763549834
 20
-480.0
 30
0.0
 40
3.5
  0
ARC
  5
1A3
330
40C
100
AcDbEntity
  8
PATTERN_FILL
  6
Continuous
 62
     7
100
AcDbCircle
 10
-499.8523763549834
 20
-490.0
 30
0.0
 40
3.500000000000056
100
AcDbArc
 50
355.6348660791672
 51
242.6178721104616
  0
CIRCLE
  5
1A4
330
40C
100
AcDbEntity
  8
PATTERN_FILL
  6
Continuous
 62
     7
100
AcDbCircle
 10
-509.8523763549834
 20
-490.0
 30
0.0
 40
3.5
  0
CIRCLE
  5
1A5
330
40C
100
AcDbEntity
  8
PATTERN_FILL
  6
Continuous
 62
     7
100
AcDbCircle
 10
-519.8523763549834
 20
-490.0
 30
0.0
 40
3.5
  0
CIRCLE
  5
1A6
330
40C
100
AcDbEntity
  8
PATTERN_FILL
  6
Continuous
 62
     7
100
AcDbCircle
 10
-529.8523763549834
 20
-490.0
 30
0.0
 40
3.5
  0
CIRCLE
  5
1A7
330
40C
100
AcDbEntity
  8
PATTERN_FILL
  6
Continuous
 62
     7
100
AcDbCircle
 10
-539.8523763549834
 20
-490.0
 30
0.0
 40
3.5
  0
CIRCLE
  5
1A8
330
40C
100
AcDbEntity
  8
PATTERN_FILL
  6
Continuous
 62
     7
100
AcDbCircle
 10
-559.8523763549834
 20
-490.0
 30
0.0
 40
3.5
  0
CIRCLE
  5
1A9
330
40C
100
AcDbEntity
  8
PATTERN_FILL
  6
Continuous
 62
     7
100
AcDbCircle
 10
-569.8523763549835
 20
-490.0
 30
0.0
 40
3.5
  0
CIRCLE
  5
1AA
330
40C
100
AcDbEntity
  8
PATTERN_FILL
  6
Continuous
 62
     7
100
AcDbCircle
 10
-579.8523763549836
 20
-490.0
 30
0.0
 40
3.5
  0
CIRCLE
  5
1AB
330
40C
100
AcDbEntity
  8
PATTERN_FILL
  6
Continuous
 62
     7
100
AcDbCircle
 10
-589.8523763549835
 20
-490.0
 30
0.0
 40
3.5
  0
ARC
  5
1AC
330
40C
100
AcDbEntity
  8
PATTERN_FILL
  6
Continuous
 62
     7
100
AcDbCircle
 10
-599.8523763549835
 20
-490.0
 30
0.0
 40
3.499999999999961
100
AcDbArc
 50
294.6059384319586
 51
187.4285833911972
  0
CIRCLE
  5
1AD
330
40C
100
AcDbEntity
  8
PATTERN_FILL
  6
Continuous
 62
     7
100
AcDbCircle
 10
-549.8523763549834
 20
-490.0
 30
0.0
 40
3.5
  0
ARC
  5
1AE
330
40C
100
AcDbEntity
  8
PATTERN_FILL
  6
Continuous
 62
     7
100
AcDbCircle
 10
-509.8523763549834
 20
-500.0
 30
0.0
 40
3.500000000000059
100
AcDbArc
 50
74.45538371861539
 51
149.2931922165007
  0
ARC
  5
1AF
330
40C
100
AcDbEntity
  8
PATTERN_FILL
  6
Continuous
 62
     7
100
AcDbCircle
 10
-519.8523763549834
 20
-500.0
 30
0.0
 40
3.499999999999945
100
AcDbArc
 50
8.609109264489289
 51
204.9445126244937
  0
ARC
  5
1B0
330
40C
100
AcDbEntity
  8
PATTERN_FILL
  6
Continuous
 62
     7
100
AcDbCircle
 10
-529.8523763549834
 20
-500.0
 30
0.0
 40
3.500000000000006
100
AcDbArc
 50
313.1998112241064
 51
249.5826653701478
  0
CIRCLE
  5
1B1
330
40C
100
AcDbEntity
  8
PATTERN_FILL
  6
Continuous
 62
     7
100
AcDbCircle
 10
-539.8523763549834
 20
-500.0
 30
0.0
 40
3.5
  0
CIRCLE
  5
1B2
330
40C
100
AcDbEntity
  8
PATTERN_FILL
  6
Continuous
 62
     7
100
AcDbCircle
 10
-559.8523763549834
 20
-500.0
 30
0.0
 40
3.5
  0
ARC
  5
1B3
330
40C
100
AcDbEntity
  8
PATTERN_FILL
  6
Continuous
 62
     7
100
AcDbCircle
 10
-569.8523763549835
 20
-500.0
 30
0.0
 40
3.500000000000004
100
AcDbArc
 50
288.6773888470272
 51
228.8654502055285
  0
ARC
  5
1B4
330
40C
100
AcDbEntity
  8
PATTERN_FILL
  6
Continuous
 62
     7
100
AcDbCircle
 10
-579.8523763549836
 20
-500.0
 30
0.0
 40
3.499999999999988
100
AcDbArc
 50
333.7977258869281
 51
172.9590451797028
  0
ARC
  5
1B5
330
40C
100
AcDbEntity
  8
PATTERN_FILL
  6
Continuous
 62
     7
100
AcDbCircle
 10
-589.8523763549835
 20
-500.0
 30
0.0
 40
3.499999999999976
100
AcDbArc
 50
28.06107385890268
 51
108.4820126005174
  0
CIRCLE
  5
1B6
330
40C
100
AcDbEntity
  8
PATTERN_FILL
  6
Continuous
 62
     7
100
AcDbCircle
 10
-549.8523763549834
 20
-500.0
 30
0.0
 40
3.5
  0
LINE
  5
1B7
330
40C
100
AcDbEntity
  8
SPEC
  6
Continuous
 62
     7
100
AcDbLine
 10
-824.9999999999996
 20
1231.786335
 30
0.0
 11
750.0
 21
1231.786335
 31
0.0
  0
LINE
  5
1B8
330
40C
100
AcDbEntity
  8
SPEC
  6
Continuous
 62
     7
100
AcDbLine
 10
-824.9999999999996
 20
1194.286335
 30
0.0
 11
750.0
 21
1194.286335
 31
0.0
  0
LINE
  5
1B9
330
40C
100
AcDbEntity
  8
SPEC
  6
Continuous
 62
     7
100
AcDbLine
 10
-824.9999999999996
 20
1231.786335
 30
0.0
 11
-824.9999999999996
 21
706.7863349999996
 31
0.0
  0
TEXT
  5
1BA
330
40C
100
AcDbEntity
  8
SPEC
 62
     7
100
AcDbText
 10
-812.4999999999996
 20
1245.719034999999
 30
0.0
 40
24.4326171875
  1
仕様
 41
0.7
 11
-812.4999999999996
 21
1270.1516521875
 31
0.0
100
AcDbText
 73
     3
  0
LINE
  5
1BB
330
40C
100
AcDbEntity
  8
SPEC
  6
Continuous
 62
     7
100
AcDbLine
 10
-437.5
 20
1231.786335
 30
0.0
 11
-437.5
 21
706.7863349999996
 31
0.0
  0
LINE
  5
1BC
330
40C
100
AcDbEntity
  8
SPEC
  6
Continuous
 62
     7
100
AcDbLine
 10
750.0
 20
1231.786335
 30
0.0
 11
750.0
 21
706.7863349999996
 31
0.0
  0
LINE
  5
1BD
330
40C
100
AcDbEntity
  8
SPEC
  6
Continuous
 62
     7
100
AcDbLine
 10
-824.9999999999996
 20
1156.786335
 30
0.0
 11
750.0
 21
1156.786335
 31
0.0
  0
LINE
  5
1BE
330
40C
100
AcDbEntity
  8
SPEC
  6
Continuous
 62
     7
100
AcDbLine
 10
-824.9999999999996
 20
1119.286334999999
 30
0.0
 11
750.0
 21
1119.286334999999
 31
0.0
  0
LINE
  5
1BF
330
40C
100
AcDbEntity
  8
SPEC
  6
Continuous
 62
     7
100
AcDbLine
 10
-824.9999999999996
 20
1081.786335
 30
0.0
 11
750.0
 21
1081.786335
 31
0.0
  0
LINE
  5
1C0
330
40C
100
AcDbEntity
  8
SPEC
  6
Continuous
 62
     7
100
AcDbLine
 10
-824.9999999999996
 20
1044.286335
 30
0.0
 11
750.0
 21
1044.286335
 31
0.0
  0
LINE
  5
1C1
330
40C
100
AcDbEntity
  8
SPEC
  6
Continuous
 62
     7
100
AcDbLine
 10
-531.25
 20
969.2863349999996
 30
0.0
 11
750.0
 21
969.2863349999996
 31
0.0
  0
LINE
  5
1C2
330
40C
100
AcDbEntity
  8
SPEC
  6
Continuous
 62
     7
100
AcDbLine
 10
-824.9999999999996
 20
894.2863349999996
 30
0.0
 11
750.0
 21
894.2863349999996
 31
0.0
  0
LINE
  5
1C3
330
40C
100
AcDbEntity
  8
SPEC
  6
Continuous
 62
     7
100
AcDbLine
 10
-824.9999999999996
 20
856.7863349999996
 30
0.0
 11
750.0
 21
856.7863349999996
 31
0.0
  0
LINE
  5
1C4
330
40C
100
AcDbEntity
  8
SPEC
  6
Continuous
 62
     7
100
AcDbLine
 10
-824.9999999999996
 20
819.2863349999996
 30
0.0
 11
750.0
 21
819.2863349999996
 31
0.0
  0
LINE
  5
1C5
330
40C
100
AcDbEntity
  8
SPEC
  6
Continuous
 62
     7
100
AcDbLine
 10
-824.9999999999996
 20
781.7863349999996
 30
0.0
 11
750.0
 21
781.7863349999996
 31
0.0
  0
LINE
  5
1C6
330
40C
100
AcDbEntity
  8
SPEC
  6
Continuous
 62
     7
100
AcDbLine
 10
-824.9999999999996
 20
744.2863349999996
 30
0.0
 11
750.0
 21
744.2863349999996
 31
0.0
  0
LINE
  5
1C7
330
40C
100
AcDbEntity
  8
SPEC
  6
Continuous
 62
     7
100
AcDbLine
 10
-824.9999999999996
 20
706.7863349999996
 30
0.0
 11
750.0
 21
706.7863349999996
 31
0.0
  0
TEXT
  5
1C8
330
40C
100
AcDbEntity
  8
SPEC
 62
     7
100
AcDbText
 10
-816.0
 20
714.6655127777774
 30
0.0
 40
19.00314670138889
  1
付属品
 41
0.7
 11
-816.0
 21
733.6686594791663
 31
0.0
100
AcDbText
 73
     3
  0
TEXT
  5
1C9
330
40C
100
AcDbEntity
  8
SPEC
 62
     7
100
AcDbText
 10
-812.5
 20
667.1457315277778
 30
0.0
 40
19.00314670138889
  1
※ 2時間、ピンクノイズ:IEC/クレストファクタ ー6dB
 41
0.7
 11
-812.5
 21
686.1488782291667
 31
0.0
100
AcDbText
 73
     3
  0
TEXT
  5
1CA
330
40C
100
AcDbEntity
  8
SPEC
 62
     7
100
AcDbText
 10
-522.25
 20
977.1655127777775
 30
0.0
 40
19.00314670138889
  1
100V
 41
0.7
 11
-522.25
 21
996.1686594791665
 31
0.0
100
AcDbText
 73
     3
  0
TEXT
  5
1CB
330
40C
100
AcDbEntity
  8
SPEC
 62
     7
100
AcDbText
 10
-816.0
 20
1202.165512777777
 30
0.0
 40
19.00314670138889
  1
周波数レンジ(-10dB)
 41
0.7
 11
-816.0
 21
1221.168659479166
 31
0.0
100
AcDbText
 73
     3
  0
TEXT
  5
1CC
330
40C
100
AcDbEntity
  8
SPEC
 62
     7
100
AcDbText
 10
-816.0
 20
1164.665512777777
 30
0.0
 40
19.00314670138889
  1
カバレージ角(1～4kHz平均)
 41
0.7
 11
-816.0
 21
1183.668659479166
 31
0.0
100
AcDbText
 73
     3
  0
TEXT
  5
1CD
330
40C
100
AcDbEntity
  8
SPEC
 62
     7
100
AcDbText
 10
-816.0
 20
1127.165512777777
 30
0.0
 40
19.00314670138889
  1
許容入力(プログラム/ピンク)※
 41
0.7
 11
-816.0
 21
1146.168659479166
 31
0.0
100
AcDbText
 73
     3
  0
TEXT
  5
1CE
330
40C
100
AcDbEntity
  8
SPEC
 62
     7
100
AcDbText
 10
-816.0
 20
1089.665512777777
 30
0.0
 40
19.00314670138889
  1
感度
 41
0.7
 11
-816.0
 21
1108.668659479166
 31
0.0
100
AcDbText
 73
     3
  0
TEXT
  5
1CF
330
40C
100
AcDbEntity
  8
SPEC
 62
     7
100
AcDbText
 10
-816.0
 20
1052.165512777777
 30
0.0
 40
19.00314670138889
  1
最大音圧レベル
 41
0.7
 11
-816.0
 21
1071.168659479166
 31
0.0
100
AcDbText
 73
     3
  0
TEXT
  5
1D0
330
40C
100
AcDbEntity
  8
SPEC
 62
     7
100
AcDbText
 10
-816.0
 20
1014.665512777777
 30
0.0
 40
19.00314670138889
  1
公称インピーダンス
 41
0.7
 11
-816.0
 21
1033.668659479166
 31
0.0
100
AcDbText
 73
     3
  0
TEXT
  5
1D1
330
40C
100
AcDbEntity
  8
SPEC
 62
     7
100
AcDbText
 10
-428.5000000000001
 20
1202.165512777777
 30
0.0
 40
19.00314670138889
  1
65Hz～15kHz
 41
0.7
 11
-428.5000000000001
 21
1221.168659479166
 31
0.0
100
AcDbText
 73
     3
  0
TEXT
  5
1D2
330
40C
100
AcDbEntity
  8
SPEC
 62
     7
100
AcDbText
 10
-428.5000000000001
 20
1164.665512777777
 30
0.0
 40
19.00314670138889
  1
120°
 41
0.7
 11
-428.5000000000001
 21
1183.668659479166
 31
0.0
100
AcDbText
 73
     3
  0
TEXT
  5
1D3
330
40C
100
AcDbEntity
  8
SPEC
 62
     7
100
AcDbText
 10
-428.5000000000001
 20
1127.165512777777
 30
0.0
 40
19.00314670138889
  1
100W/50W
 41
0.7
 11
-428.5000000000001
 21
1146.168659479166
 31
0.0
100
AcDbText
 73
     3
  0
TEXT
  5
1D4
330
40C
100
AcDbEntity
  8
SPEC
 62
     7
100
AcDbText
 10
-428.5
 20
1089.665512777777
 30
0.0
 40
19.00314670138889
  1
88dB SPL
 41
0.7
 11
-428.5
 21
1108.668659479166
 31
0.0
100
AcDbText
 73
     3
  0
TEXT
  5
1D5
330
40C
100
AcDbEntity
  8
SPEC
 62
     7
100
AcDbText
 10
-428.5
 20
1052.165512777777
 30
0.0
 40
19.00314670138889
  1
105dB SPL
 41
0.7
 11
-428.5
 21
1071.168659479166
 31
0.0
100
AcDbText
 73
     3
  0
TEXT
  5
1D6
330
40C
100
AcDbEntity
  8
SPEC
 62
     7
100
AcDbText
 10
-428.5
 20
1014.665512777777
 30
0.0
 40
19.00314670138889
  1
8Ω
 41
0.7
 11
-428.5
 21
1033.668659479166
 31
0.0
100
AcDbText
 73
     3
  0
TEXT
  5
1D7
330
40C
100
AcDbEntity
  8
SPEC
 62
     7
100
AcDbText
 10
-816.0
 20
864.6655127777775
 30
0.0
 40
19.00314670138889
  1
色
 41
0.7
 11
-816.0
 21
883.6686594791663
 31
0.0
100
AcDbText
 73
     3
  0
TEXT
  5
1D8
330
40C
100
AcDbEntity
  8
SPEC
 62
     7
100
AcDbText
 10
-816.0
 20
977.1655127777775
 30
0.0
 40
19.00314670138889
  1
トランス・タップ
 41
0.7
 11
-816.0
 21
996.1686594791665
 31
0.0
100
AcDbText
 73
     3
  0
TEXT
  5
1D9
330
40C
100
AcDbEntity
  8
SPEC
 62
     7
100
AcDbText
 10
-522.25
 20
939.6655127777775
 30
0.0
 40
19.00314670138889
  1
70V
 41
0.7
 11
-522.25
 21
958.6686594791665
 31
0.0
100
AcDbText
 73
     3
  0
TEXT
  5
1DA
330
40C
100
AcDbEntity
  8
SPEC
 62
     7
100
AcDbText
 10
-428.5
 20
977.1655127777775
 30
0.0
 40
19.00314670138889
  1
30W、15W、7.5W
 41
0.7
 11
-428.5
 21
996.1686594791665
 31
0.0
100
AcDbText
 73
     3
  0
TEXT
  5
1DB
330
40C
100
AcDbEntity
  8
SPEC
 62
     7
100
AcDbText
 10
-428.5
 20
939.6655127777775
 30
0.0
 40
19.00314670138889
  1
30W、15W、7.5W、3.7W
 41
0.7
 11
-428.5
 21
958.6686594791665
 31
0.0
100
AcDbText
 73
     3
  0
LINE
  5
1DC
330
40C
100
AcDbEntity
  8
SPEC
  6
Continuous
 62
     7
100
AcDbLine
 10
-531.25
 20
1006.786334999999
 30
0.0
 11
-531.25
 21
931.7863349999996
 31
0.0
  0
LINE
  5
1DD
330
40C
100
AcDbEntity
  8
SPEC
  6
Continuous
 62
     7
100
AcDbLine
 10
-824.9999999999996
 20
1006.786334999999
 30
0.0
 11
750.0
 21
1006.786334999999
 31
0.0
  0
LINE
  5
1DE
330
40C
100
AcDbEntity
  8
SPEC
  6
Continuous
 62
     7
100
AcDbLine
 10
-824.9999999999996
 20
931.7863349999996
 30
0.0
 11
750.0
 21
931.7863349999996
 31
0.0
  0
TEXT
  5
1DF
330
40C
100
AcDbEntity
  8
SPEC
 62
     7
100
AcDbText
 10
-816.0
 20
902.1655127777775
 30
0.0
 40
19.00314670138889
  1
ドライバー構成^I
 41
0.7
 11
-816.0
 21
921.1686594791665
 31
0.0
100
AcDbText
 73
     3
  0
TEXT
  5
1E0
330
40C
100
AcDbEntity
  8
SPEC
 62
     7
100
AcDbText
 10
-816.0
 20
827.1655127777773
 30
0.0
 40
19.00314670138889
  1
端子(入力/ループスルー)
 41
0.7
 11
-816.0
 21
846.1686594791663
 31
0.0
100
AcDbText
 73
     3
  0
TEXT
  5
1E1
330
40C
100
AcDbEntity
  8
SPEC
 62
     7
100
AcDbText
 10
-816.0
 20
789.6655127777774
 30
0.0
 40
19.00314670138889
  1
寸法(φ×H)
 41
0.7
 11
-816.0
 21
808.6686594791663
 31
0.0
100
AcDbText
 73
     3
  0
TEXT
  5
1E2
330
40C
100
AcDbEntity
  8
SPEC
 62
     7
100
AcDbText
 10
-816.0
 20
752.1655127777774
 30
0.0
 40
19.00314670138889
  1
質量
 41
0.7
 11
-816.0
 21
771.1686594791663
 31
0.0
100
AcDbText
 73
     3
  0
TEXT
  5
1E3
330
40C
100
AcDbEntity
  8
SPEC
 62
     7
100
AcDbText
 10
-428.5
 20
864.6655127777775
 30
0.0
 40
19.00314670138889
  1
黒または白(-WH)
 41
0.7
 11
-428.5
 21
883.6686594791663
 31
0.0
100
AcDbText
 73
     3
  0
TEXT
  5
1E4
330
40C
100
AcDbEntity
  8
SPEC
 62
     7
100
AcDbText
 10
-428.5
 20
902.1655127777775
 30
0.0
 40
19.00314670138889
  1
4インチ(102mm)
 41
0.7
 11
-428.5
 21
921.1686594791665
 31
0.0
100
AcDbText
 73
     3
  0
TEXT
  5
1E5
330
40C
100
AcDbEntity
  8
SPEC
 62
     7
100
AcDbText
 10
-428.5
 20
827.1655127777773
 30
0.0
 40
19.00314670138889
  1
ユーロブロック
 41
0.7
 11
-428.5
 21
846.1686594791663
 31
0.0
100
AcDbText
 73
     3
  0
TEXT
  5
1E6
330
40C
100
AcDbEntity
  8
SPEC
 62
     7
100
AcDbText
 10
-428.5
 20
789.6655127777774
 30
0.0
 40
19.00314670138889
  1
234×254mm(除突起部)
 41
0.7
 11
-428.5
 21
808.6686594791663
 31
0.0
100
AcDbText
 73
     3
  0
TEXT
  5
1E7
330
40C
100
AcDbEntity
  8
SPEC
 62
     7
100
AcDbText
 10
-428.5
 20
752.1655127777774
 30
0.0
 40
19.00314670138889
  1
2.4kg
 41
0.7
 11
-428.5
 21
771.1686594791663
 31
0.0
100
AcDbText
 73
     3
  0
TEXT
  5
1E8
330
40C
100
AcDbEntity
  8
SPEC
 62
     7
100
AcDbText
 10
-428.5
 20
714.6655127777774
 30
0.0
 40
19.00314670138889
  1
吊下げワイヤー・キット×2、2ピン・ユーロブロックコネクター×4、端子カバー×4、和文取扱説明書
 41
0.7
 11
-428.5
 21
733.6686594791663
 31
0.0
100
AcDbText
 73
     3
  0
TEXT
  5
1E9
330
40C
100
AcDbEntity
  8
DIMNSIONS
 62
     7
100
AcDbText
 10
-200.0
 20
-1145.518765
 30
0.0
 40
24.4326171875
  1
(単位：mm)
 41
0.7
 11
-200.0
 21
-1121.0861478125
 31
0.0
100
AcDbText
 73
     3
  0
LINE
  5
1EA
330
40C
100
AcDbEntity
  8
DIMNSIONS
  6
Continuous
 62
     7
100
AcDbLine
 10
-584.40804431399
 20
-511.8261440204678
 30
0.0
 11
-600.0
 21
-562.5
 31
0.0
  0
LINE
  5
1EB
330
40C
100
AcDbEntity
  8
DIMNSIONS
  6
Continuous
 62
     7
100
AcDbLine
 10
-584.40804431399
 20
-511.8261440204678
 30
0.0
 11
-585.3115346893652
 21
-537.6987232483859
 31
0.0
  0
LINE
  5
1EC
330
40C
100
AcDbEntity
  8
DIMNSIONS
  6
Continuous
 62
     7
100
AcDbLine
 10
-584.40804431399
 20
-511.8261440204678
 30
0.0
 11
-598.1267795450987
 21
-533.7807097055828
 31
0.0
  0
LINE
  5
1ED
330
40C
100
AcDbEntity
  8
DIMNSIONS
  6
Continuous
 62
     7
100
AcDbLine
 10
-600.0
 20
-562.5
 30
0.0
 11
-620.0
 21
-562.5
 31
0.0
  0
TEXT
  5
1EE
330
40C
100
AcDbEntity
  8
DIMNSIONS
 62
     7
100
AcDbText
 10
-708.1944444444444
 20
-575.1999999999999
 30
0.0
 40
27.14735243055556
  1
φ234
 41
0.7
 11
-708.1944444444444
 21
-548.0526475694444
 31
0.0
100
AcDbText
 73
     3
  0
LINE
  5
1EF
330
40C
100
AcDbEntity
  8
DIMNSIONS
  6
Continuous
 62
     7
100
AcDbLine
 10
-400.0
 20
-494.0540537500001
 30
0.0
 11
-400.0
 21
-572.5
 31
0.0
  0
LINE
  5
1F0
330
40C
100
AcDbEntity
  8
DIMNSIONS
  6
Continuous
 62
     7
100
AcDbLine
 10
-145.9999999998498
 20
-494.6247706105868
 30
0.0
 11
-145.9999999998498
 21
-572.5
 31
0.0
  0
LINE
  5
1F1
330
40C
100
AcDbEntity
  8
DIMNSIONS
  6
Continuous
 62
     7
100
AcDbLine
 10
-400.0
 20
-562.5
 30
0.0
 11
-145.9999999998498
 21
-562.5
 31
0.0
  0
LINE
  5
1F2
330
40C
100
AcDbEntity
  8
DIMNSIONS
  6
Continuous
 62
     7
100
AcDbLine
 10
-400.0
 20
-562.5
 30
0.0
 11
-374.9937744140625
 21
-555.7996020484976
 31
0.0
  0
LINE
  5
1F3
330
40C
100
AcDbEntity
  8
DIMNSIONS
  6
Continuous
 62
     7
100
AcDbLine
 10
-400.0
 20
-562.5
 30
0.0
 11
-374.9937744140625
 21
-569.2003979515024
 31
0.0
  0
LINE
  5
1F4
330
40C
100
AcDbEntity
  8
DIMNSIONS
  6
Continuous
 62
     7
100
AcDbLine
 10
-145.9999999998498
 20
-562.5
 30
0.0
 11
-171.0062255857873
 21
-569.2003979515024
 31
0.0
  0
LINE
  5
1F5
330
40C
100
AcDbEntity
  8
DIMNSIONS
  6
Continuous
 62
     7
100
AcDbLine
 10
-145.9999999998498
 20
-562.5
 30
0.0
 11
-171.0062255857873
 21
-555.7996020484976
 31
0.0
  0
TEXT
  5
1F6
330
40C
100
AcDbEntity
  8
DIMNSIONS
 62
     7
100
AcDbText
 10
-299.4583333332582
 20
-553.5611111111109
 30
0.0
 40
27.14735243055556
  1
254
 41
0.7
 11
-299.4583333332582
 21
-526.4137586805555
 31
0.0
100
AcDbText
 73
     3
  0
LINE
  5
1F7
330
40C
100
AcDbEntity
  8
DIMNSIONS
  6
Continuous
 62
     7
100
AcDbLine
 10
-134.7669247315878
 20
-394.6328107721575
 30
0.0
 11
-50.0
 21
-225.0
 31
0.0
  0
LINE
  5
1F8
330
40C
100
AcDbEntity
  8
DIMNSIONS
  6
Continuous
 62
     7
100
AcDbLine
 10
-134.7669247315878
 20
-394.6328107721575
 30
0.0
 11
-129.3844341706752
 21
-369.3101836153047
 31
0.0
  0
LINE
  5
1F9
330
40C
100
AcDbEntity
  8
DIMNSIONS
  6
Continuous
 62
     7
100
AcDbLine
 10
-134.7669247315878
 20
-394.6328107721575
 30
0.0
 11
-117.4442375917812
 21
-375.3940176442175
 31
0.0
  0
LINE
  5
1FA
330
40C
100
AcDbEntity
  8
DIMNSIONS
  6
Continuous
 62
     7
100
AcDbLine
 10
-50.0
 20
-225.0
 30
0.0
 11
-29.99999999999999
 21
-225.0
 31
0.0
  0
TEXT
  5
1FB
330
40C
100
AcDbEntity
  8
DIMNSIONS
 62
     7
100
AcDbText
 10
-29.99999999999999
 20
-237.7
 30
0.0
 40
27.14735243055556
  1
φ12.0吊下げ
 41
0.7
 11
-29.99999999999999
 21
-210.5526475694444
 31
0.0
100
AcDbText
 73
     3
  0
LINE
  5
1FC
330
40C
100
AcDbEntity
  8
DIMNSIONS
  6
Continuous
 62
     7
100
AcDbLine
 10
-400.0
 20
-494.0540537500001
 30
0.0
 11
-400.0
 21
-622.5
 31
0.0
  0
LINE
  5
1FD
330
40C
100
AcDbEntity
  8
DIMNSIONS
  6
Continuous
 62
     7
100
AcDbLine
 10
-124.9999999998498
 20
-423.8110162573394
 30
0.0
 11
-124.9999999998498
 21
-622.5
 31
0.0
  0
LINE
  5
1FE
330
40C
100
AcDbEntity
  8
DIMNSIONS
  6
Continuous
 62
     7
100
AcDbLine
 10
-400.0
 20
-612.5
 30
0.0
 11
-124.9999999998498
 21
-612.5
 31
0.0
  0
LINE
  5
1FF
330
40C
100
AcDbEntity
  8
DIMNSIONS
  6
Continuous
 62
     7
100
AcDbLine
 10
-400.0
 20
-612.5
 30
0.0
 11
-374.9937744140625
 21
-605.7996020484976
 31
0.0
  0
LINE
  5
200
330
40C
100
AcDbEntity
  8
DIMNSIONS
  6
Continuous
 62
     7
100
AcDbLine
 10
-400.0
 20
-612.5
 30
0.0
 11
-374.9937744140625
 21
-619.2003979515024
 31
0.0
  0
LINE
  5
201
330
40C
100
AcDbEntity
  8
DIMNSIONS
  6
Continuous
 62
     7
100
AcDbLine
 10
-124.9999999998498
 20
-612.5
 30
0.0
 11
-150.0062255857873
 21
-619.2003979515024
 31
0.0
  0
LINE
  5
202
330
40C
100
AcDbEntity
  8
DIMNSIONS
  6
Continuous
 62
     7
100
AcDbLine
 10
-124.9999999998498
 20
-612.5
 30
0.0
 11
-150.0062255857873
 21
-605.7996020484976
 31
0.0
  0
TEXT
  5
203
330
40C
100
AcDbEntity
  8
DIMNSIONS
 62
     7
100
AcDbText
 10
-288.9583333332582
 20
-603.5611111111109
 30
0.0
 40
27.14735243055556
  1
275
 41
0.7
 11
-288.9583333332582
 21
-576.4137586805555
 31
0.0
100
AcDbText
 73
     3
  0
LINE
  5
204
330
40C
100
AcDbEntity
  8
DIMNSIONS
  6
Continuous
 62
     7
100
AcDbLine
 10
99.0
 20
-449.0
 30
0.0
 11
99.0
 21
-572.5
 31
0.0
  0
LINE
  5
205
330
40C
100
AcDbEntity
  8
DIMNSIONS
  6
Continuous
 62
     7
100
AcDbLine
 10
101.0
 20
-449.0
 30
0.0
 11
101.0
 21
-572.5
 31
0.0
  0
LINE
  5
206
330
40C
100
AcDbEntity
  8
DIMNSIONS
  6
Continuous
 62
     7
100
AcDbLine
 10
101.0
 20
-562.5
 30
0.0
 11
99.0
 21
-562.5
 31
0.0
  0
LINE
  5
207
330
40C
100
AcDbEntity
  8
DIMNSIONS
  6
Continuous
 62
     7
100
AcDbLine
 10
99.0
 20
-562.5
 30
0.0
 11
64.0
 21
-562.5
 31
0.0
  0
LINE
  5
208
330
40C
100
AcDbEntity
  8
DIMNSIONS
  6
Continuous
 62
     7
100
AcDbLine
 10
99.0
 20
-562.5
 30
0.0
 11
73.9937744140625
 21
-569.2003979515024
 31
0.0
  0
LINE
  5
209
330
40C
100
AcDbEntity
  8
DIMNSIONS
  6
Continuous
 62
     7
100
AcDbLine
 10
99.0
 20
-562.5
 30
0.0
 11
73.9937744140625
 21
-555.7996020484976
 31
0.0
  0
LINE
  5
20A
330
40C
100
AcDbEntity
  8
DIMNSIONS
  6
Continuous
 62
     7
100
AcDbLine
 10
101.0
 20
-562.5
 30
0.0
 11
177.9166666666666
 21
-562.5
 31
0.0
  0
LINE
  5
20B
330
40C
100
AcDbEntity
  8
DIMNSIONS
  6
Continuous
 62
     7
100
AcDbLine
 10
101.0
 20
-562.5
 30
0.0
 11
126.0062255859375
 21
-555.7996020484976
 31
0.0
  0
LINE
  5
20C
330
40C
100
AcDbEntity
  8
DIMNSIONS
  6
Continuous
 62
     7
100
AcDbLine
 10
101.0
 20
-562.5
 30
0.0
 11
126.0062255859375
 21
-569.2003979515024
 31
0.0
  0
TEXT
  5
20D
330
40C
100
AcDbEntity
  8
DIMNSIONS
 62
     7
100
AcDbText
 10
125.0
 20
-553.5611111111109
 30
0.0
 40
27.14735243055556
  1
2.0
 41
0.7
 11
125.0
 21
-526.4137586805555
 31
0.0
100
AcDbText
 73
     3
  0
LINE
  5
20E
330
40C
100
AcDbEntity
  8
DIMNSIONS
  6
Continuous
 62
     7
100
AcDbLine
 10
-129.3492068220868
 20
-366.0
 30
0.0
 11
-65.0
 21
-366.0
 31
0.0
  0
LINE
  5
20F
330
40C
100
AcDbEntity
  8
DIMNSIONS
  6
Continuous
 62
     7
100
AcDbLine
 10
-129.3492068220868
 20
-434.0
 30
0.0
 11
-65.0
 21
-434.0
 31
0.0
  0
LINE
  5
210
330
40C
100
AcDbEntity
  8
DIMNSIONS
  6
Continuous
 62
     7
100
AcDbLine
 10
-75.0
 20
-434.0
 30
0.0
 11
-75.0
 21
-508.0555555555554
 31
0.0
  0
LINE
  5
211
330
40C
100
AcDbEntity
  8
DIMNSIONS
  6
Continuous
 62
     7
100
AcDbLine
 10
-75.0
 20
-366.0
 30
0.0
 11
-75.0
 21
-434.0
 31
0.0
  0
LINE
  5
212
330
40C
100
AcDbEntity
  8
DIMNSIONS
  6
Continuous
 62
     7
100
AcDbLine
 10
-75.0
 20
-366.0
 30
0.0
 11
-68.29960204849758
 21
-391.0062255859375
 31
0.0
  0
LINE
  5
213
330
40C
100
AcDbEntity
  8
DIMNSIONS
  6
Continuous
 62
     7
100
AcDbLine
 10
-75.0
 20
-366.0
 30
0.0
 11
-81.70039795150243
 21
-391.0062255859375
 31
0.0
  0
LINE
  5
214
330
40C
100
AcDbEntity
  8
DIMNSIONS
  6
Continuous
 62
     7
100
AcDbLine
 10
-75.0
 20
-434.0
 30
0.0
 11
-81.70039795150243
 21
-408.9937744140625
 31
0.0
  0
LINE
  5
215
330
40C
100
AcDbEntity
  8
DIMNSIONS
  6
Continuous
 62
     7
100
AcDbLine
 10
-75.0
 20
-434.0
 30
0.0
 11
-68.29960204849758
 21
-408.9937744140625
 31
0.0
  0
TEXT
  5
216
330
40C
100
AcDbEntity
  8
DIMNSIONS
 62
     7
100
AcDbText
 10
-83.93888888888888
 20
-508.0555555555556
 30
0.0
 40
27.14735243055556
  1
68.0
 50
90.0
 41
0.7
 11
-111.0862413194444
 21
-508.0555555555556
 31
0.0
100
AcDbText
 73
     3
  0
LINE
  5
217
330
40C
100
AcDbEntity
  8
DIMNSIONS
  6
Continuous
 62
     7
100
AcDbLine
 10
-137.6185683456523
 20
-380.0020860965261
 30
0.0
 11
-100.0
 21
-225.0
 31
0.0
  0
LINE
  5
218
330
40C
100
AcDbEntity
  8
DIMNSIONS
  6
Continuous
 62
     7
100
AcDbLine
 10
-137.6185683456523
 20
-380.0020860965261
 30
0.0
 11
-138.0703823468007
 21
-354.117679306498
 31
0.0
  0
LINE
  5
219
330
40C
100
AcDbEntity
  8
DIMNSIONS
  6
Continuous
 62
     7
100
AcDbLine
 10
-137.6185683456523
 20
-380.0020860965261
 30
0.0
 11
-125.0676473534181
 21
-357.3596252538971
 31
0.0
  0
LINE
  5
21A
330
40C
100
AcDbEntity
  8
DIMNSIONS
  6
Continuous
 62
     7
100
AcDbLine
 10
-100.0
 20
-225.0
 30
0.0
 11
-120.0
 21
-225.0
 31
0.0
  0
TEXT
  5
21B
330
40C
100
AcDbEntity
  8
DIMNSIONS
 62
     7
100
AcDbText
 10
-508.0555555555554
 20
-237.7
 30
0.0
 40
27.14735243055556
  1
φ7.5落下防止ワイヤー 
 41
0.7
 11
-508.0555555555554
 21
-210.5526475694444
 31
0.0
100
AcDbText
 73
     3
  0
TEXT
  5
21C
330
40C
100
AcDbEntity
  8
DIMNSIONS
 62
     7
100
AcDbText
 10
-366.8055555555555
 20
-272.9777777777778
 30
0.0
 40
27.14735243055556
  1
取付穴(2ヵ所)
 41
0.7
 11
-366.8055555555555
 21
-245.8304253472222
 31
0.0
100
AcDbText
 73
     3
  0
TEXT
  5
21D
330
40C
100
AcDbEntity
  8
DIMNSIONS
 62
     7
100
AcDbText
 10
-29.99999999999999
 20
-280.3388888888889
 30
0.0
 40
27.14735243055556
  1
ワイヤー取付穴
 41
0.7
 11
-29.99999999999999
 21
-253.1915364583333
 31
0.0
100
AcDbText
 73
     3
  0
TEXT
  5
21E
330
40C
100
AcDbEntity
  8
DATA
 62
     7
100
AcDbText
 10
-875.0
 20
-1189.450887222222
 30
0.0
 40
19.00314670138889
  1
※仕様及び外観は予告なく変更されることがあります。
 41
0.7
 11
-875.0
 21
-1170.447740520833
 31
0.0
100
AcDbText
 73
     3
  0
TEXT
  5
21F
330
40C
100
AcDbEntity
  8
DATA
 62
     7
100
AcDbText
 10
-875.0
 20
-1214.145331666667
 30
0.0
 40
19.00314670138889
  1
　また、同一商品でも若干の個体差があることがあります。ご了承ください。
 41
0.7
 11
-875.0
 21
-1195.142184965278
 31
0.0
100
AcDbText
 73
     3
  0
TEXT
  5
220
330
40C
100
AcDbEntity
  8
DATA
 62
     7
100
AcDbText
 10
436.2593411735968
 20
-1120.444315
 30
0.0
 40
19.00314670138889
  1
天井吊下げ用フルレンジ・スピーカー
 41
0.7
 11
436.2593411735968
 21
-1101.441168298611
 31
0.0
100
AcDbText
 73
     3
  0
CIRCLE
  5
221
330
40C
100
AcDbEntity
  8
DATA
  6
Continuous
 62
     7
100
AcDbCircle
 10
-550.0
 20
-400.0
 30
0.0
 40
117.0
  0
CIRCLE
  5
222
330
40C
100
AcDbEntity
  8
DATA
  6
Continuous
 62
     7
100
AcDbCircle
 10
91.86541582359359
 20
-436.6950594036924
 30
0.0
 40
3.5
  0
LWPOLYLINE
  5
223
330
40C
100
AcDbEntity
  8
DATA
  6
Continuous
 62
     7
100
AcDbPolyline
 90
        6
 70
     1
 43
0.0
 10
90.56541582359352
 20
-436.6950594036924
 10
91.21541582359361
 20
-437.8208924286123
 10
92.51541582359356
 20
-437.8208924286123
 10
93.16541582359354
 20
-436.6950594036924
 10
92.51541582359356
 20
-435.5692263787728
 10
91.21541582359361
 20
-435.5692263787728
  0
CIRCLE
  5
22C
330
40C
100
AcDbEntity
  8
DATA
  6
Continuous
 62
     7
100
AcDbCircle
 10
91.86541582359359
 20
-362.6950594036925
 30
0.0
 40
3.5
  0
LWPOLYLINE
  5
22D
330
40C
100
AcDbEntity
  8
DATA
  6
Continuous
 62
     7
100
AcDbPolyline
 90
        6
 70
     1
 43
0.0
 10
90.56541582359352
 20
-362.6950594036925
 10
91.21541582359361
 20
-363.8208924286123
 10
92.51541582359356
 20
-363.8208924286123
 10
93.16541582359354
 20
-362.6950594036925
 10
92.51541582359356
 20
-361.5692263787729
 10
91.21541582359361
 20
-361.5692263787729
  0
LINE
  5
236
330
40C
100
AcDbEntity
  8
DATA
  6
Continuous
 62
     7
100
AcDbLine
 10
113.9751480968492
 20
-394.000000000322
 30
0.0
 11
113.9751480968492
 21
-406.000000000322
 31
0.0
  0
LINE
  5
237
330
40C
100
AcDbEntity
  8
DATA
  6
Continuous
 62
     7
100
AcDbLine
 10
122.9751480968493
 20
-394.000000000322
 30
0.0
 11
113.9751480968492
 21
-394.000000000322
 31
0.0
  0
LINE
  5
238
330
40C
100
AcDbEntity
  8
DATA
  6
Continuous
 62
     7
100
AcDbLine
 10
122.9751480968493
 20
-406.000000000322
 30
0.0
 11
113.9751480968492
 21
-406.000000000322
 31
0.0
  0
LINE
  5
239
330
40C
100
AcDbEntity
  8
DATA
  6
Continuous
 62
     7
100
AcDbLine
 10
122.9751480968493
 20
-394.000000000322
 30
0.0
 11
122.9751480968493
 21
-406.000000000322
 31
0.0
  0
LWPOLYLINE
  5
23A
330
40C
100
AcDbEntity
  8
DATA
  6
Continuous
 62
     7
100
AcDbPolyline
 90
        4
 70
     1
 43
0.0
 10
117.9751480968493
 20
-402.000000000322
 10
118.9751480968493
 20
-402.000000000322
 10
118.9751480968493
 20
-403.0000000003219
 10
117.9751480968493
 20
-403.0000000003219
  0
LWPOLYLINE
  5
241
330
40C
100
AcDbEntity
  8
DATA
  6
Continuous
 62
     7
100
AcDbPolyline
 90
        4
 70
     1
 43
0.0
 10
117.9751480968493
 20
-397.000000000322
 10
118.9751480968493
 20
-397.000000000322
 10
118.9751480968493
 20
-398.000000000322
 10
117.9751480968493
 20
-398.000000000322
  0
LINE
  5
248
330
40C
100
AcDbEntity
  8
DATA
  6
Continuous
 62
     7
100
AcDbLine
 10
110.1751480968493
 20
-398.1917973495233
 30
0.0
 11
110.1751480968493
 21
-396.1917973495232
 31
0.0
  0
LINE
  5
249
330
40C
100
AcDbEntity
  8
DATA
  6
Continuous
 62
     7
100
AcDbLine
 10
111.1751480968493
 20
-402.8082026511206
 30
0.0
 11
109.1751480968493
 21
-402.8082026511206
 31
0.0
  0
LINE
  5
24A
330
40C
100
AcDbEntity
  8
DATA
  6
Continuous
 62
     7
100
AcDbLine
 10
110.1751480968493
 20
-403.8082026511205
 30
0.0
 11
110.1751480968493
 21
-401.8082026511206
 31
0.0
  0
LINE
  5
24B
330
40C
100
AcDbEntity
  8
DATA
  6
Continuous
 62
     7
100
AcDbLine
 10
121.4751480968493
 20
-405.400000000322
 30
0.0
 11
115.4751480968492
 21
-405.400000000322
 31
0.0
  0
LINE
  5
24C
330
40C
100
AcDbEntity
  8
DATA
  6
Continuous
 62
     7
100
AcDbLine
 10
121.4751480968493
 20
-394.6000000003218
 30
0.0
 11
115.4751480968492
 21
-394.6000000003218
 31
0.0
  0
LINE
  5
24D
330
40C
100
AcDbEntity
  8
DATA
  6
Continuous
 62
     7
100
AcDbLine
 10
115.4751480968492
 20
-394.6000000003218
 30
0.0
 11
115.4751480968492
 21
-405.400000000322
 31
0.0
  0
LINE
  5
24E
330
40C
100
AcDbEntity
  8
DATA
  6
Continuous
 62
     7
100
AcDbLine
 10
121.4751480968493
 20
-394.6000000003218
 30
0.0
 11
121.4751480968493
 21
-395.1000000003223
 31
0.0
  0
LINE
  5
24F
330
40C
100
AcDbEntity
  8
DATA
  6
Continuous
 62
     7
100
AcDbLine
 10
121.4751480968493
 20
-399.5000000003215
 30
0.0
 11
121.4751480968493
 21
-400.5000000003223
 31
0.0
  0
LINE
  5
250
330
40C
100
AcDbEntity
  8
DATA
  6
Continuous
 62
     7
100
AcDbLine
 10
121.4751480968493
 20
-404.9000000003216
 30
0.0
 11
121.4751480968493
 21
-405.400000000322
 31
0.0
  0
LINE
  5
251
330
40C
100
AcDbEntity
  8
DATA
  6
Continuous
 62
     7
100
AcDbLine
 10
121.4751480968493
 20
-405.400000000322
 30
0.0
 11
121.4751480968493
 21
-404.9000000003216
 31
0.0
  0
LINE
  5
252
330
40C
100
AcDbEntity
  8
DATA
  6
Continuous
 62
     7
100
AcDbLine
 10
121.4751480968493
 20
-400.5000000003223
 30
0.0
 11
121.4751480968493
 21
-400.000000000322
 31
0.0
  0
ARC
  5
253
330
40C
100
AcDbEntity
  8
DATA
  6
Continuous
 62
     7
100
AcDbCircle
 10
119.874433811135
 20
-402.7000000003217
 30
0.0
 40
2.7207142857145
100
AcDbArc
 50
306.0395385635508
 51
53.96046143644362
  0
ARC
  5
254
330
40C
100
AcDbEntity
  8
DATA
  6
Continuous
 62
     7
100
AcDbCircle
 10
119.874433811135
 20
-397.300000000322
 30
0.0
 40
2.720714285714132
100
AcDbArc
 50
306.0395385635564
 51
53.96046143644928
  0
LINE
  5
255
330
40C
100
AcDbEntity
  8
DATA
  6
Continuous
 62
     7
100
AcDbLine
 10
153.7821283317609
 20
-394.000000000322
 30
0.0
 11
153.7821283317609
 21
-406.000000000322
 31
0.0
  0
LINE
  5
256
330
40C
100
AcDbEntity
  8
DATA
  6
Continuous
 62
     7
100
AcDbLine
 10
162.782128331761
 20
-394.000000000322
 30
0.0
 11
153.7821283317609
 21
-394.000000000322
 31
0.0
  0
LINE
  5
257
330
40C
100
AcDbEntity
  8
DATA
  6
Continuous
 62
     7
100
AcDbLine
 10
162.782128331761
 20
-406.000000000322
 30
0.0
 11
153.7821283317609
 21
-406.000000000322
 31
0.0
  0
LINE
  5
258
330
40C
100
AcDbEntity
  8
DATA
  6
Continuous
 62
     7
100
AcDbLine
 10
162.782128331761
 20
-394.000000000322
 30
0.0
 11
162.782128331761
 21
-406.000000000322
 31
0.0
  0
LWPOLYLINE
  5
259
330
40C
100
AcDbEntity
  8
DATA
  6
Continuous
 62
     7
100
AcDbPolyline
 90
        4
 70
     1
 43
0.0
 10
157.782128331761
 20
-402.000000000322
 10
158.782128331761
 20
-402.000000000322
 10
158.782128331761
 20
-403.0000000003219
 10
157.782128331761
 20
-403.0000000003219
  0
LWPOLYLINE
  5
260
330
40C
100
AcDbEntity
  8
DATA
  6
Continuous
 62
     7
100
AcDbPolyline
 90
        4
 70
     1
 43
0.0
 10
157.782128331761
 20
-397.000000000322
 10
158.782128331761
 20
-397.000000000322
 10
158.782128331761
 20
-398.000000000322
 10
157.782128331761
 20
-398.000000000322
  0
LINE
  5
267
330
40C
100
AcDbEntity
  8
DATA
  6
Continuous
 62
     7
100
AcDbLine
 10
149.9821283317609
 20
-398.1917973495233
 30
0.0
 11
149.9821283317609
 21
-396.1917973495232
 31
0.0
  0
LINE
  5
268
330
40C
100
AcDbEntity
  8
DATA
  6
Continuous
 62
     7
100
AcDbLine
 10
150.9821283317609
 20
-402.8082026511206
 30
0.0
 11
148.9821283317609
 21
-402.8082026511206
 31
0.0
  0
LINE
  5
269
330
40C
100
AcDbEntity
  8
DATA
  6
Continuous
 62
     7
100
AcDbLine
 10
149.9821283317609
 20
-403.8082026511205
 30
0.0
 11
149.9821283317609
 21
-401.8082026511206
 31
0.0
  0
LINE
  5
26A
330
40C
100
AcDbEntity
  8
DATA
  6
Continuous
 62
     7
100
AcDbLine
 10
161.282128331761
 20
-405.400000000322
 30
0.0
 11
155.2821283317608
 21
-405.400000000322
 31
0.0
  0
LINE
  5
26B
330
40C
100
AcDbEntity
  8
DATA
  6
Continuous
 62
     7
100
AcDbLine
 10
161.282128331761
 20
-394.6000000003218
 30
0.0
 11
155.2821283317608
 21
-394.6000000003218
 31
0.0
  0
LINE
  5
26C
330
40C
100
AcDbEntity
  8
DATA
  6
Continuous
 62
     7
100
AcDbLine
 10
155.2821283317608
 20
-394.6000000003218
 30
0.0
 11
155.2821283317608
 21
-405.400000000322
 31
0.0
  0
LINE
  5
26D
330
40C
100
AcDbEntity
  8
DATA
  6
Continuous
 62
     7
100
AcDbLine
 10
161.282128331761
 20
-394.6000000003218
 30
0.0
 11
161.282128331761
 21
-395.1000000003223
 31
0.0
  0
LINE
  5
26E
330
40C
100
AcDbEntity
  8
DATA
  6
Continuous
 62
     7
100
AcDbLine
 10
161.282128331761
 20
-399.5000000003215
 30
0.0
 11
161.282128331761
 21
-400.5000000003223
 31
0.0
  0
LINE
  5
26F
330
40C
100
AcDbEntity
  8
DATA
  6
Continuous
 62
     7
100
AcDbLine
 10
161.282128331761
 20
-404.9000000003216
 30
0.0
 11
161.282128331761
 21
-405.400000000322
 31
0.0
  0
LINE
  5
270
330
40C
100
AcDbEntity
  8
DATA
  6
Continuous
 62
     7
100
AcDbLine
 10
161.282128331761
 20
-405.400000000322
 30
0.0
 11
161.282128331761
 21
-404.9000000003216
 31
0.0
  0
LINE
  5
271
330
40C
100
AcDbEntity
  8
DATA
  6
Continuous
 62
     7
100
AcDbLine
 10
161.282128331761
 20
-400.5000000003223
 30
0.0
 11
161.282128331761
 21
-400.000000000322
 31
0.0
  0
ARC
  5
272
330
40C
100
AcDbEntity
  8
DATA
  6
Continuous
 62
     7
100
AcDbCircle
 10
159.6814140460467
 20
-402.7000000003217
 30
0.0
 40
2.7207142857145
100
AcDbArc
 50
306.0395385635508
 51
53.96046143644362
  0
ARC
  5
273
330
40C
100
AcDbEntity
  8
DATA
  6
Continuous
 62
     7
100
AcDbCircle
 10
159.6814140460467
 20
-397.300000000322
 30
0.0
 40
2.720714285714132
100
AcDbArc
 50
306.0395385635564
 51
53.96046143644928
  0
TEXT
  5
274
330
40C
100
AcDbEntity
  8
DATA
 62
     7
100
AcDbText
 10
91.40541582359354
 20
-420.1533927370256
 30
0.0
 40
5.429470486111111
  1
C64P/T
 50
90.0
 41
0.7
 11
85.97594533748242
 21
-420.1533927370256
 31
0.0
100
AcDbText
 73
     3
  0
LWPOLYLINE
  5
275
330
40C
100
AcDbEntity
  8
DATA
  6
Continuous
 62
     7
100
AcDbPolyline
 90
        4
 70
     1
 43
0.0
 10
-555.508
 20
-393.1959999999999
 10
-544.4919999999999
 20
-393.1959999999999
 10
-544.4919999999999
 20
-406.804
 10
-555.508
 20
-406.804
  0
ARC
  5
27C
330
40C
100
AcDbEntity
  8
DATA
  6
Continuous
 62
     7
100
AcDbCircle
 10
-552.395018712366
 20
-400.5803042898096
 30
0.0
 40
0.1998950688668336
100
AcDbArc
 50
217.6419024975709
 51
264.2670192893616
  0
LINE
  5
27D
330
40C
100
AcDbEntity
  8
DATA
  6
Continuous
 62
     7
100
AcDbLine
 10
-549.2449959473328
 20
-395.4457567377609
 30
0.0
 11
-547.0121224990899
 21
-396.3828678039754
 31
0.0
  0
LINE
  5
27E
330
40C
100
AcDbEntity
  8
DATA
  6
Continuous
 62
     7
100
AcDbLine
 10
-549.2449959473328
 20
-395.4457567377609
 30
0.0
 11
-547.0121224990899
 21
-394.5202085959881
 31
0.0
  0
LINE
  5
27F
330
40C
100
AcDbEntity
  8
DATA
  6
Continuous
 62
     7
100
AcDbLine
 10
-553.2826888990897
 20
-402.5493051783368
 30
0.0
 11
-547.0121224990899
 21
-402.5493051783368
 31
0.0
  0
LINE
  5
280
330
40C
100
AcDbEntity
  8
DATA
  6
Continuous
 62
     7
100
AcDbLine
 10
-547.0121224990899
 20
-403.7525140003014
 30
0.0
 11
-552.3224394428593
 21
-403.7525140003014
 31
0.0
  0
LINE
  5
281
330
40C
100
AcDbEntity
  8
DATA
  6
Continuous
 62
     7
100
AcDbLine
 10
-547.0121224990899
 20
-396.8225034848456
 30
0.0
 11
-552.3224394428593
 21
-396.8225034848456
 31
0.0
  0
LINE
  5
282
330
40C
100
AcDbEntity
  8
DATA
  6
Continuous
 62
     7
100
AcDbLine
 10
-547.0121224990899
 20
-397.9794355267785
 30
0.0
 11
-552.3224394428593
 21
-397.9794355267785
 31
0.0
  0
LINE
  5
283
330
40C
100
AcDbEntity
  8
DATA
  6
Continuous
 62
     7
100
AcDbLine
 10
-547.0121224990899
 20
-398.5810399377609
 30
0.0
 11
-553.2826888990897
 21
-398.5810399377609
 31
0.0
  0
LINE
  5
284
330
40C
100
AcDbEntity
  8
DATA
  6
Continuous
 62
     7
100
AcDbLine
 10
-547.6021514444981
 20
-399.6338492246217
 30
0.0
 11
-549.6152164581552
 21
-399.6338492246217
 31
0.0
  0
LINE
  5
285
330
40C
100
AcDbEntity
  8
DATA
  6
Continuous
 62
     7
100
AcDbLine
 10
-549.4987344167088
 20
-401.8903627081929
 30
0.0
 11
-548.0302242009265
 21
-401.8903627081929
 31
0.0
  0
LINE
  5
286
330
40C
100
AcDbEntity
  8
DATA
  6
Continuous
 62
     7
100
AcDbLine
 10
-547.8798183952561
 20
-400.7791995304135
 30
0.0
 11
-549.3375557779631
 21
-400.7791995304135
 31
0.0
  0
ARC
  5
287
330
40C
100
AcDbEntity
  8
DATA
  6
Continuous
 62
     7
100
AcDbCircle
 10
-551.6725328588976
 20
-396.5903420344521
 30
0.0
 40
1.617087163838403
100
AcDbArc
 50
174.690856221539
 51
233.9911991542365
  0
LINE
  5
288
330
40C
100
AcDbEntity
  8
DATA
  6
Continuous
 62
     7
100
AcDbLine
 10
-551.3159006654641
 20
-395.9432383936713
 30
0.0
 11
-552.3224269017265
 21
-395.9432383936713
 31
0.0
  0
LINE
  5
289
330
40C
100
AcDbEntity
  8
DATA
  6
Continuous
 62
     7
100
AcDbLine
 10
-551.3159006654641
 20
-395.9432383936713
 30
0.0
 11
-551.3159006654641
 21
-394.9019983018184
 31
0.0
  0
LINE
  5
28A
330
40C
100
AcDbEntity
  8
DATA
  6
Continuous
 62
     7
100
AcDbLine
 10
-551.3159006654641
 20
-394.9019983018184
 30
0.0
 11
-552.3224269017265
 21
-394.9019983018184
 31
0.0
  0
ARC
  5
28B
330
40C
100
AcDbEntity
  8
DATA
  6
Continuous
 62
     7
100
AcDbCircle
 10
-552.3359964074161
 20
-396.385075043348
 30
0.0
 40
0.4376409047426473
100
AcDbArc
 50
179.7118487927518
 51
271.7759870056692
  0
ARC
  5
28C
330
40C
100
AcDbEntity
  8
DATA
  6
Continuous
 62
     7
100
AcDbCircle
 10
-552.3359964074161
 20
-396.380666835169
 30
0.0
 40
0.4376386669136897
100
AcDbArc
 50
88.22401299430971
 51
180.2881512072313
  0
ARC
  5
28D
330
40C
100
AcDbEntity
  8
DATA
  6
Continuous
 62
     7
100
AcDbCircle
 10
-551.6725328588976
 20
-396.2910917941449
 30
0.0
 40
1.617084537586534
100
AcDbArc
 50
126.0088008457588
 51
185.309143778458
  0
ARC
  5
28E
330
40C
100
AcDbEntity
  8
DATA
  6
Continuous
 62
     7
100
AcDbCircle
 10
-552.2869793898674
 20
-395.6327951923399
 30
0.0
 40
0.7316498180901422
100
AcDbArc
 50
92.77699544998215
 51
117.3596066671401
  0
CIRCLE
  5
28F
330
40C
100
AcDbEntity
  8
DATA
  6
Continuous
 62
     7
100
AcDbCircle
 10
-550.1126981140656
 20
-395.509390445588
 30
0.0
 40
0.5958166781952059
  0
LINE
  5
290
330
40C
100
AcDbEntity
  8
DATA
  6
Continuous
 62
     7
100
AcDbLine
 10
-553.2826826285234
 20
-405.6845883783368
 30
0.0
 11
-553.2826826285234
 21
-402.5493051783368
 31
0.0
  0
LINE
  5
291
330
40C
100
AcDbEntity
  8
DATA
  6
Continuous
 62
     7
100
AcDbLine
 10
-553.2826826285234
 20
-405.6845883783368
 30
0.0
 11
-551.3158943948976
 21
-405.6845883783368
 31
0.0
  0
LINE
  5
292
330
40C
100
AcDbEntity
  8
DATA
  6
Continuous
 62
     7
100
AcDbLine
 10
-551.3159006654641
 20
-405.6845883783368
 30
0.0
 11
-551.3159006654641
 21
-404.6317853620423
 31
0.0
  0
LINE
  5
293
330
40C
100
AcDbEntity
  8
DATA
  6
Continuous
 62
     7
100
AcDbLine
 10
-551.3159006654641
 20
-404.6317853620423
 30
0.0
 11
-552.3224269017265
 21
-404.6317853620423
 31
0.0
  0
LINE
  5
294
330
40C
100
AcDbEntity
  8
DATA
  6
Continuous
 62
     7
100
AcDbLine
 10
-553.2826826285234
 20
-398.5810399377609
 30
0.0
 11
-553.2826763579568
 21
-400.7791995304135
 31
0.0
  0
LINE
  5
295
330
40C
100
AcDbEntity
  8
DATA
  6
Continuous
 62
     7
100
AcDbLine
 10
-552.6926474125493
 20
-399.6338429540551
 30
0.0
 11
-552.6926474125493
 21
-400.200739780014
 31
0.0
  0
LINE
  5
296
330
40C
100
AcDbEntity
  8
DATA
  6
Continuous
 62
     7
100
AcDbLine
 10
-552.6926474125493
 20
-399.6338492246217
 30
0.0
 11
-550.2168145985712
 21
-399.6338492246217
 31
0.0
  0
LINE
  5
297
330
40C
100
AcDbEntity
  8
DATA
  6
Continuous
 62
     7
100
AcDbLine
 10
-550.2168145985712
 20
-399.6338429540551
 30
0.0
 11
-550.2168145985712
 21
-400.200739780014
 31
0.0
  0
LINE
  5
298
330
40C
100
AcDbEntity
  8
DATA
  6
Continuous
 62
     7
100
AcDbLine
 10
-552.4149867323569
 20
-400.7791995304135
 30
0.0
 11
-550.4944752787631
 21
-400.7791995304135
 31
0.0
  0
ARC
  5
299
330
40C
100
AcDbEntity
  8
DATA
  6
Continuous
 62
     7
100
AcDbCircle
 10
-552.2869793898674
 20
-397.2486386362568
 30
0.0
 40
0.7316487769810608
100
AcDbArc
 50
242.6403933328637
 51
267.2230045500209
  0
ARC
  5
29A
330
40C
100
AcDbEntity
  8
DATA
  6
Continuous
 62
     7
100
AcDbCircle
 10
-552.3359964074161
 20
-404.1943506499785
 30
0.0
 40
0.4376409047426473
100
AcDbArc
 50
179.7118487927518
 51
271.7759870056692
  0
ARC
  5
29B
330
40C
100
AcDbEntity
  8
DATA
  6
Continuous
 62
     7
100
AcDbCircle
 10
-552.3359964074161
 20
-404.1899487123656
 30
0.0
 40
0.4376386669136897
100
AcDbArc
 50
88.22401299430971
 51
180.2881512072313
  0
LINE
  5
29C
330
40C
100
AcDbEntity
  8
DATA
  6
Continuous
 62
     7
100
AcDbLine
 10
-552.2761501216945
 20
-401.8898547923145
 30
0.0
 11
-550.6101734994096
 21
-401.8898547923145
 31
0.0
  0
LINE
  5
29D
330
40C
100
AcDbEntity
  8
DATA
  6
Continuous
 62
     7
100
AcDbLine
 10
-549.6152164581552
 20
-399.6338429540551
 30
0.0
 11
-549.6152164581552
 21
-400.200739780014
 31
0.0
  0
ARC
  5
29E
330
40C
100
AcDbEntity
  8
DATA
  6
Continuous
 62
     7
100
AcDbCircle
 10
-552.0922971148464
 20
-400.6994880903368
 30
0.0
 40
1.193045119057647
100
AcDbArc
 50
183.8309816091055
 51
261.1351473098011
  0
LINE
  5
29F
330
40C
100
AcDbEntity
  8
DATA
  6
Continuous
 62
     7
100
AcDbLine
 10
-547.0121224990899
 20
-396.8225034848456
 30
0.0
 11
-547.0121224990899
 21
-397.9794355267785
 31
0.0
  0
LINE
  5
2A0
330
40C
100
AcDbEntity
  8
DATA
  6
Continuous
 62
     7
100
AcDbLine
 10
-547.0121224990899
 20
-394.5202085959881
 30
0.0
 11
-547.0121224990899
 21
-396.3828678039754
 31
0.0
  0
LINE
  5
2A1
330
40C
100
AcDbEntity
  8
DATA
  6
Continuous
 62
     7
100
AcDbLine
 10
-547.0121224990899
 20
-402.5493051783368
 30
0.0
 11
-547.0121224990899
 21
-403.7525140003014
 31
0.0
  0
LINE
  5
2A2
330
40C
100
AcDbEntity
  8
DATA
  6
Continuous
 62
     7
100
AcDbLine
 10
-547.0121224990899
 20
-398.5810399377609
 30
0.0
 11
-547.0121275743236
 21
-400.7912829922216
 31
0.0
  0
LINE
  5
2A3
330
40C
100
AcDbEntity
  8
DATA
  6
Continuous
 62
     7
100
AcDbLine
 10
-547.6021577150643
 20
-399.6338429540551
 30
0.0
 11
-547.6021577150643
 21
-400.200739780014
 31
0.0
  0
ARC
  5
2A4
330
40C
100
AcDbEntity
  8
DATA
  6
Continuous
 62
     7
100
AcDbCircle
 10
-548.2006832779442
 20
-400.7113833547975
 30
0.0
 40
1.191238268639078
100
AcDbArc
 50
278.2269238590229
 51
356.1541266921558
  0
ARC
  5
2A5
330
40C
100
AcDbEntity
  8
DATA
  6
Continuous
 62
     7
100
AcDbCircle
 10
-551.5929857323747
 20
-400.2074338997239
 30
0.0
 40
1.09968205499705
100
AcDbArc
 50
179.6512199376333
 51
192.8264828068801
  0
ARC
  5
2A6
330
40C
100
AcDbEntity
  8
DATA
  6
Continuous
 62
     7
100
AcDbCircle
 10
-552.057909523866
 20
-400.3309456003064
 30
0.0
 40
0.6191794940985619
100
AcDbArc
 50
191.2331036226509
 51
216.8620088940659
  0
ARC
  5
2A7
330
40C
100
AcDbEntity
  8
DATA
  6
Continuous
 62
     7
100
AcDbCircle
 10
-550.5144432987539
 20
-400.5803042898096
 30
0.0
 40
0.1998950688666903
100
AcDbArc
 50
275.7329807106061
 51
322.3580975024806
  0
ARC
  5
2A8
330
40C
100
AcDbEntity
  8
DATA
  6
Continuous
 62
     7
100
AcDbCircle
 10
-551.3164762787454
 20
-400.2074338997239
 30
0.0
 40
1.099682054996955
100
AcDbArc
 50
347.1735171931199
 51
0.3487800623666999
  0
ARC
  5
2A9
330
40C
100
AcDbEntity
  8
DATA
  6
Continuous
 62
     7
100
AcDbCircle
 10
-550.8515524872543
 20
-400.3309456003064
 30
0.0
 40
0.6191794940985267
100
AcDbArc
 50
323.1379911059635
 51
348.7668963773471
  0
ARC
  5
2AA
330
40C
100
AcDbEntity
  8
DATA
  6
Continuous
 62
     7
100
AcDbCircle
 10
-550.651189274232
 20
-401.2830646229192
 30
0.0
 40
0.6081748132395778
100
AcDbArc
 50
273.8670063598135
 51
358.3616345678763
  0
ARC
  5
2AB
330
40C
100
AcDbEntity
  8
DATA
  6
Continuous
 62
     7
100
AcDbCircle
 10
-549.4347495571632
 20
-401.2825065425097
 30
0.0
 40
0.6087791554008458
100
AcDbArc
 50
181.6892821046508
 51
266.078282982662
  0
ARC
  5
2AC
330
40C
100
AcDbEntity
  8
DATA
  6
Continuous
 62
     7
100
AcDbCircle
 10
-549.3175877579723
 20
-400.5803042898096
 30
0.0
 40
0.1998950688667436
100
AcDbArc
 50
217.6419024975909
 51
264.2670192893616
  0
ARC
  5
2AD
330
40C
100
AcDbEntity
  8
DATA
  6
Continuous
 62
     7
100
AcDbCircle
 10
-548.5155547779812
 20
-400.2074338997239
 30
0.0
 40
1.099682054996596
100
AcDbArc
 50
179.6512199376331
 51
192.826482806884
  0
ARC
  5
2AE
330
40C
100
AcDbEntity
  8
DATA
  6
Continuous
 62
     7
100
AcDbCircle
 10
-548.9804785694722
 20
-400.3309456003064
 30
0.0
 40
0.6191794940984503
100
AcDbArc
 50
191.233103622653
 51
216.8620088940659
  0
ARC
  5
2AF
330
40C
100
AcDbEntity
  8
DATA
  6
Continuous
 62
     7
100
AcDbCircle
 10
-547.8997864152469
 20
-400.5803042898096
 30
0.0
 40
0.1998950688666903
100
AcDbArc
 50
275.7329807106061
 51
322.3580975023892
  0
ARC
  5
2B0
330
40C
100
AcDbEntity
  8
DATA
  6
Continuous
 62
     7
100
AcDbCircle
 10
-548.7018193952382
 20
-400.2074338997239
 30
0.0
 40
1.099682054996844
100
AcDbArc
 50
347.1735171931186
 51
0.3487800623667568
  0
ARC
  5
2B1
330
40C
100
AcDbEntity
  8
DATA
  6
Continuous
 62
     7
100
AcDbCircle
 10
-548.2368956037471
 20
-400.3309456003064
 30
0.0
 40
0.6191794940983449
100
AcDbArc
 50
323.1379911059509
 51
348.7668963773429
  0
CIRCLE
  5
2B2
330
40C
100
AcDbEntity
  8
DATA
  6
Continuous
 62
     7
100
AcDbCircle
 10
-550.0
 20
-400.0
 30
0.0
 40
105.0
  0
CIRCLE
  5
2B3
330
40C
100
AcDbEntity
  8
DATA
  6
Continuous
 62
     7
100
AcDbCircle
 10
-550.0
 20
-400.0
 30
0.0
 40
112.5
  0
LINE
  5
2B4
330
40C
100
AcDbEntity
  8
DATA
  6
Continuous
 62
     7
100
AcDbLine
 10
706.25
 20
2.822617054978167
 30
0.0
 11
593.75
 21
2.822617054978167
 31
0.0
  0
LINE
  5
2B5
330
40C
100
AcDbEntity
  8
DATA
  6
Continuous
 62
     7
100
AcDbLine
 10
706.25
 20
-81.55238294502227
 30
0.0
 11
706.25
 21
2.822617054978167
 31
0.0
  0
LINE
  5
2B6
330
40C
100
AcDbEntity
  8
DATA
  6
Continuous
 62
     7
100
AcDbLine
 10
593.75
 20
-81.55238294502227
 30
0.0
 11
593.75
 21
2.822617054978167
 31
0.0
  0
LINE
  5
2B7
330
40C
100
AcDbEntity
  8
DATA
  6
Continuous
 62
     7
100
AcDbLine
 10
706.25
 20
-81.55238294502227
 30
0.0
 11
593.75
 21
-81.55238294502227
 31
0.0
  0
LWPOLYLINE
  5
2B8
330
40C
100
AcDbEntity
  8
DATA
  6
Continuous
 62
     7
100
AcDbPolyline
 90
        4
 70
     1
 43
0.0
 10
621.875
 20
-34.67738294502225
 10
631.25
 20
-34.67738294502225
 10
631.25
 20
-44.05238294502225
 10
621.875
 20
-44.05238294502225
  0
LWPOLYLINE
  5
2BF
330
40C
100
AcDbEntity
  8
DATA
  6
Continuous
 62
     7
100
AcDbPolyline
 90
        4
 70
     1
 43
0.0
 10
668.75
 20
-34.67738294502225
 10
678.125
 20
-34.67738294502225
 10
678.125
 20
-44.05238294502225
 10
668.75
 20
-44.05238294502225
  0
LINE
  5
2C6
330
40C
100
AcDbEntity
  8
DATA
  6
Continuous
 62
     7
100
AcDbLine
 10
666.951899851238
 20
38.44761705497817
 30
0.0
 11
685.701899851238
 21
38.44761705497817
 31
0.0
  0
LINE
  5
2C7
330
40C
100
AcDbEntity
  8
DATA
  6
Continuous
 62
     7
100
AcDbLine
 10
623.6731001487616
 20
29.07261705497817
 30
0.0
 11
623.6731001487616
 21
47.82261705497816
 31
0.0
  0
LINE
  5
2C8
330
40C
100
AcDbEntity
  8
DATA
  6
Continuous
 62
     7
100
AcDbLine
 10
614.2981001487616
 20
38.44761705497817
 30
0.0
 11
633.0481001487616
 21
38.44761705497817
 31
0.0
  0
LINE
  5
2C9
330
40C
100
AcDbEntity
  8
DATA
  6
Continuous
 62
     7
100
AcDbLine
 10
599.375
 20
-67.48988294502225
 30
0.0
 11
599.375
 21
-11.23988294502183
 31
0.0
  0
LINE
  5
2CA
330
40C
100
AcDbEntity
  8
DATA
  6
Continuous
 62
     7
100
AcDbLine
 10
700.6250000000004
 20
-67.48988294502225
 30
0.0
 11
700.6250000000004
 21
-11.23988294502183
 31
0.0
  0
LINE
  5
2CB
330
40C
100
AcDbEntity
  8
DATA
  6
Continuous
 62
     7
100
AcDbLine
 10
700.6250000000004
 20
-11.23988294502183
 30
0.0
 11
599.375
 21
-11.23988294502183
 31
0.0
  0
LINE
  5
2CC
330
40C
100
AcDbEntity
  8
DATA
  6
Continuous
 62
     7
100
AcDbLine
 10
700.6250000000004
 20
-67.48988294502225
 30
0.0
 11
695.9374999999965
 21
-67.48988294502225
 31
0.0
  0
LINE
  5
2CD
330
40C
100
AcDbEntity
  8
DATA
  6
Continuous
 62
     7
100
AcDbLine
 10
654.6875000000039
 20
-67.48988294502225
 30
0.0
 11
645.3124999999964
 21
-67.48988294502225
 31
0.0
  0
LINE
  5
2CE
330
40C
100
AcDbEntity
  8
DATA
  6
Continuous
 62
     7
100
AcDbLine
 10
604.0625000000034
 20
-67.48988294502225
 30
0.0
 11
599.375
 21
-67.48988294502225
 31
0.0
  0
LINE
  5
2CF
330
40C
100
AcDbEntity
  8
DATA
  6
Continuous
 62
     7
100
AcDbLine
 10
599.375
 20
-67.48988294502225
 30
0.0
 11
604.0625000000034
 21
-67.48988294502225
 31
0.0
  0
LINE
  5
2D0
330
40C
100
AcDbEntity
  8
DATA
  6
Continuous
 62
     7
100
AcDbLine
 10
645.3124999999964
 20
-67.48988294502225
 30
0.0
 11
650.0
 21
-67.48988294502225
 31
0.0
  0
ARC
  5
2D1
330
40C
100
AcDbEntity
  8
DATA
  6
Continuous
 62
     7
100
AcDbCircle
 10
624.6875
 20
-52.48318651645092
 30
0.0
 40
25.50669642857137
100
AcDbArc
 50
216.0395385635541
 51
323.9604614364457
  0
ARC
  5
2D2
330
40C
100
AcDbEntity
  8
DATA
  6
Continuous
 62
     7
100
AcDbCircle
 10
675.3125000000006
 20
-52.48318651645092
 30
0.0
 40
25.50669642857183
100
AcDbArc
 50
216.0395385635533
 51
323.9604614364449
  0
LINE
  5
2D3
330
40C
100
AcDbEntity
  8
DATA
  6
Continuous
 62
     7
100
AcDbLine
 10
706.25
 20
-165.6249999999996
 30
0.0
 11
593.75
 21
-165.6249999999996
 31
0.0
  0
LINE
  5
2D4
330
40C
100
AcDbEntity
  8
DATA
  6
Continuous
 62
     7
100
AcDbLine
 10
706.25
 20
-250.0
 30
0.0
 11
706.25
 21
-165.6249999999996
 31
0.0
  0
LINE
  5
2D5
330
40C
100
AcDbEntity
  8
DATA
  6
Continuous
 62
     7
100
AcDbLine
 10
593.75
 20
-250.0
 30
0.0
 11
593.75
 21
-165.6249999999996
 31
0.0
  0
LINE
  5
2D6
330
40C
100
AcDbEntity
  8
DATA
  6
Continuous
 62
     7
100
AcDbLine
 10
706.25
 20
-250.0
 30
0.0
 11
593.75
 21
-250.0
 31
0.0
  0
LWPOLYLINE
  5
2D7
330
40C
100
AcDbEntity
  8
DATA
  6
Continuous
 62
     7
100
AcDbPolyline
 90
        4
 70
     1
 43
0.0
 10
621.875
 20
-203.1250000000001
 10
631.25
 20
-203.1250000000001
 10
631.25
 20
-212.5000000000001
 10
621.875
 20
-212.5000000000001
  0
LWPOLYLINE
  5
2DE
330
40C
100
AcDbEntity
  8
DATA
  6
Continuous
 62
     7
100
AcDbPolyline
 90
        4
 70
     1
 43
0.0
 10
668.75
 20
-203.1250000000001
 10
678.125
 20
-203.1250000000001
 10
678.125
 20
-212.5000000000001
 10
668.75
 20
-212.5000000000001
  0
LINE
  5
2E5
330
40C
100
AcDbEntity
  8
DATA
  6
Continuous
 62
     7
100
AcDbLine
 10
666.951899851238
 20
-129.9999999999996
 30
0.0
 11
685.701899851238
 21
-129.9999999999996
 31
0.0
  0
LINE
  5
2E6
330
40C
100
AcDbEntity
  8
DATA
  6
Continuous
 62
     7
100
AcDbLine
 10
623.6731001487616
 20
-139.3749999999996
 30
0.0
 11
623.6731001487616
 21
-120.6249999999995
 31
0.0
  0
LINE
  5
2E7
330
40C
100
AcDbEntity
  8
DATA
  6
Continuous
 62
     7
100
AcDbLine
 10
614.2981001487616
 20
-129.9999999999996
 30
0.0
 11
633.0481001487616
 21
-129.9999999999996
 31
0.0
  0
LINE
  5
2E8
330
40C
100
AcDbEntity
  8
DATA
  6
Continuous
 62
     7
100
AcDbLine
 10
599.375
 20
-235.9375
 30
0.0
 11
599.375
 21
-179.6874999999996
 31
0.0
  0
LINE
  5
2E9
330
40C
100
AcDbEntity
  8
DATA
  6
Continuous
 62
     7
100
AcDbLine
 10
700.6250000000004
 20
-235.9375
 30
0.0
 11
700.6250000000004
 21
-179.6874999999996
 31
0.0
  0
LINE
  5
2EA
330
40C
100
AcDbEntity
  8
DATA
  6
Continuous
 62
     7
100
AcDbLine
 10
700.6250000000004
 20
-179.6874999999996
 30
0.0
 11
599.375
 21
-179.6874999999996
 31
0.0
  0
LINE
  5
2EB
330
40C
100
AcDbEntity
  8
DATA
  6
Continuous
 62
     7
100
AcDbLine
 10
700.6250000000004
 20
-235.9375
 30
0.0
 11
695.9374999999965
 21
-235.9375
 31
0.0
  0
LINE
  5
2EC
330
40C
100
AcDbEntity
  8
DATA
  6
Continuous
 62
     7
100
AcDbLine
 10
654.6875000000039
 20
-235.9375
 30
0.0
 11
645.3124999999964
 21
-235.9375
 31
0.0
  0
LINE
  5
2ED
330
40C
100
AcDbEntity
  8
DATA
  6
Continuous
 62
     7
100
AcDbLine
 10
604.0625000000034
 20
-235.9375
 30
0.0
 11
599.375
 21
-235.9375
 31
0.0
  0
LINE
  5
2EE
330
40C
100
AcDbEntity
  8
DATA
  6
Continuous
 62
     7
100
AcDbLine
 10
599.375
 20
-235.9375
 30
0.0
 11
604.0625000000034
 21
-235.9375
 31
0.0
  0
LINE
  5
2EF
330
40C
100
AcDbEntity
  8
DATA
  6
Continuous
 62
     7
100
AcDbLine
 10
645.3124999999964
 20
-235.9375
 30
0.0
 11
650.0
 21
-235.9375
 31
0.0
  0
ARC
  5
2F0
330
40C
100
AcDbEntity
  8
DATA
  6
Continuous
 62
     7
100
AcDbCircle
 10
624.6875
 20
-220.9308035714287
 30
0.0
 40
25.50669642857137
100
AcDbArc
 50
216.0395385635541
 51
323.9604614364457
  0
ARC
  5
2F1
330
40C
100
AcDbEntity
  8
DATA
  6
Continuous
 62
     7
100
AcDbCircle
 10
675.3125000000006
 20
-220.9308035714287
 30
0.0
 40
25.50669642857183
100
AcDbArc
 50
216.0395385635533
 51
323.9604614364454
  0
CIRCLE
  5
2F2
330
40C
100
AcDbEntity
  8
DATA
  6
Continuous
 62
     7
100
AcDbCircle
 10
650.0
 20
-599.9999999999985
 30
0.0
 40
94.51431000000013
  0
TEXT
  5
2F3
330
40C
100
AcDbEntity
  8
DATA
 62
     7
100
AcDbText
 10
663.4675755053689
 20
-654.8778088087866
 30
0.0
 40
22.45086622888184
  1
15
 50
284.0
 41
0.7
 11
685.251555058447
 21
-649.446452692841
 31
0.0
100
AcDbText
 73
     3
  0
TEXT
  5
2F4
330
40C
100
AcDbEntity
  8
DATA
 62
     7
100
AcDbText
 10
663.4201158693132
 20
-514.1687406486015
 30
0.0
 40
22.45086622888184
  1
15
 50
265.0
 41
0.7
 11
685.7855497740923
 21
-516.125462570108
 31
0.0
100
AcDbText
 73
     3
  0
TEXT
  5
2F5
330
40C
100
AcDbEntity
  8
DATA
 62
     7
100
AcDbText
 10
701.3677753228972
 20
-611.4025141716402
 30
0.0
 40
22.45086622888184
  1
8Ω
 41
0.7
 11
701.3677753228972
 21
-588.9516479427584
 31
0.0
100
AcDbText
 73
     3
  0
TEXT
  5
2F6
330
40C
100
AcDbEntity
  8
DATA
 62
     7
100
AcDbText
 10
598.829532493973
 20
-588.8226295135803
 30
0.0
 40
22.45086622888184
  1
8Ω
 50
180.0
 41
0.7
 11
598.829532493973
 21
-611.2734957424621
 31
0.0
100
AcDbText
 73
     3
  0
TEXT
  5
2F7
330
40C
100
AcDbEntity
  8
DATA
 62
     7
100
AcDbText
 10
709.1354017425967
 20
-535.169004538955
 30
0.0
 40
22.45086622888184
  1
7.5
 50
240.0
 41
0.7
 11
728.5784222337745
 21
-546.3944376533959
 31
0.0
100
AcDbText
 73
     3
  0
CIRCLE
  5
2F8
330
40C
100
AcDbEntity
  8
DATA
  6
Continuous
 62
     7
100
AcDbCircle
 10
584.375
 20
-553.9909841944008
 30
0.0
 40
4.913234163220153
  0
TEXT
  5
2F9
330
40C
100
AcDbEntity
  8
DATA
 62
     7
100
AcDbText
 10
623.904918472924
 20
-616.342319847382
 30
0.0
 40
22.45086622888184
  1
3.75
 50
210.0
 41
0.7
 11
635.1303515873649
 21
-635.7853403385597
 31
0.0
100
AcDbText
 73
     3
  0
TEXT
  5
2FA
330
40C
100
AcDbEntity
  8
DATA
 62
     7
100
AcDbText
 10
634.2734711561932
 20
-639.6390400638357
 30
0.0
 40
22.45086622888184
  1
7.5
 50
240.0
 41
0.7
 11
653.716491647371
 21
-650.8644731782766
 31
0.0
100
AcDbText
 73
     3
  0
TEXT
  5
2FB
330
40C
100
AcDbEntity
  8
DATA
 62
     7
100
AcDbText
 10
692.7199263939118
 20
-636.6094072377051
 30
0.0
 40
22.45086622888184
  1
30
 50
300.0
 41
0.7
 11
712.1629468850896
 21
-625.3839741232641
 31
0.0
100
AcDbText
 73
     3
  0
TEXT
  5
2FC
330
40C
100
AcDbEntity
  8
DATA
 62
     7
100
AcDbText
 10
607.0741015662655
 20
-523.2505496222274
 30
0.0
 40
22.45086622888184
  1
30
 50
290.0000000000001
 41
0.7
 11
628.1710148917973
 21
-515.5719011368399
 31
0.0
100
AcDbText
 73
     3
  0
LWPOLYLINE
  5
2FD
330
40C
100
AcDbEntity
  8
DATA
  6
Continuous
 62
     7
100
AcDbPolyline
 90
        4
 70
     1
 43
0.0
 10
610.358471901813
 20
-617.7899001905335
 10
607.7325138706214
 20
-602.8973521491568
 10
689.6415280981881
 20
-588.4545829776037
 10
692.2674861293801
 20
-603.3471310189804
  0
LINE
  5
304
330
40C
100
AcDbEntity
  8
DATA
  6
Continuous
 62
     7
100
AcDbLine
 10
528.5491116500003
 20
-609.4514310000001
 30
0.0
 11
547.4519736500001
 21
-599.9999999999998
 31
0.0
  0
LINE
  5
305
330
40C
100
AcDbEntity
  8
DATA
  6
Continuous
 62
     7
100
AcDbLine
 10
547.4519736500001
 20
-599.9999999999998
 30
0.0
 11
528.5491116500003
 21
-590.5485689999998
 31
0.0
  0
LINE
  5
306
330
40C
100
AcDbEntity
  8
DATA
  6
Continuous
 62
     7
100
AcDbLine
 10
528.5491116500003
 20
-609.4514310000001
 30
0.0
 11
528.5491116500003
 21
-590.5485689999998
 31
0.0
  0
LINE
  5
307
330
40C
100
AcDbEntity
  8
DATA
  6
Continuous
 62
     7
100
AcDbLine
 10
771.4508883500001
 20
-609.4514310000001
 30
0.0
 11
752.5480263500003
 21
-599.9999999999998
 31
0.0
  0
LINE
  5
308
330
40C
100
AcDbEntity
  8
DATA
  6
Continuous
 62
     7
100
AcDbLine
 10
752.5480263500003
 20
-599.9999999999998
 30
0.0
 11
771.4508883500001
 21
-590.5485689999998
 31
0.0
  0
LINE
  5
309
330
40C
100
AcDbEntity
  8
DATA
  6
Continuous
 62
     7
100
AcDbLine
 10
771.4508883500001
 20
-609.4514310000001
 30
0.0
 11
771.4508883500001
 21
-590.5485689999998
 31
0.0
  0
TEXT
  5
30A
330
40C
100
AcDbEntity
  8
DATA
 62
     7
100
AcDbText
 10
637.592555270761
 20
-640.8933045464731
 30
0.0
 40
22.45086622888184
  1
70V
 50
9.999999999999996
 41
0.7
 11
633.6940032630717
 21
-618.7835174224304
 31
0.0
100
AcDbText
 73
     3
  0
TEXT
  5
30B
330
40C
100
AcDbEntity
  8
DATA
 62
     7
100
AcDbText
 10
671.8302111280593
 20
-564.9664678228167
 30
0.0
 40
22.45086622888184
  1
100V
 50
190.0
 41
0.7
 11
675.7287631357486
 21
-587.0762549468595
 31
0.0
100
AcDbText
 73
     3
  0
TEXT
  5
30C
330
40C
100
AcDbEntity
  8
DATA
 62
     7
100
AcDbText
 10
596.1577510127315
 20
-310.4486762152774
 30
0.0
 40
27.14735243055556
  1
端子拡大図
 41
0.7
 72
     1
 11
650.0
 21
-296.8749999999996
 31
0.0
100
AcDbText
 73
     2
  0
CIRCLE
  5
30D
330
40C
100
AcDbEntity
  8
DATA
  6
Continuous
 62
     7
100
AcDbCircle
 10
-396.5359026820923
 20
-336.7567570000001
 30
0.0
 40
2.45945944999994
  0
CIRCLE
  5
30E
330
40C
100
AcDbEntity
  8
DATA
  6
Continuous
 62
     7
100
AcDbCircle
 10
-396.5359026820923
 20
-343.783784
 30
0.0
 40
2.459459450000168
  0
CIRCLE
  5
30F
330
40C
100
AcDbEntity
  8
DATA
  6
Continuous
 62
     7
100
AcDbCircle
 10
-396.5359026820923
 20
-350.8108110000001
 30
0.0
 40
2.45945944999994
  0
CIRCLE
  5
310
330
40C
100
AcDbEntity
  8
DATA
  6
Continuous
 62
     7
100
AcDbCircle
 10
-396.5359026820923
 20
-357.8378379999999
 30
0.0
 40
2.45945944999994
  0
CIRCLE
  5
311
330
40C
100
AcDbEntity
  8
DATA
  6
Continuous
 62
     7
100
AcDbCircle
 10
-396.5359026820923
 20
-364.864865
 30
0.0
 40
2.45945944999994
  0
CIRCLE
  5
312
330
40C
100
AcDbEntity
  8
DATA
  6
Continuous
 62
     7
100
AcDbCircle
 10
-396.5359026820923
 20
-371.8918920000001
 30
0.0
 40
2.45945944999994
  0
CIRCLE
  5
313
330
40C
100
AcDbEntity
  8
DATA
  6
Continuous
 62
     7
100
AcDbCircle
 10
-396.5359026820923
 20
-378.918919
 30
0.0
 40
2.459459450000168
  0
CIRCLE
  5
314
330
40C
100
AcDbEntity
  8
DATA
  6
Continuous
 62
     7
100
AcDbCircle
 10
-396.5359026820923
 20
-385.945946
 30
0.0
 40
2.45945944999994
  0
CIRCLE
  5
315
330
40C
100
AcDbEntity
  8
DATA
  6
Continuous
 62
     7
100
AcDbCircle
 10
-396.5359026820923
 20
-392.9729729999999
 30
0.0
 40
2.459459450000168
  0
CIRCLE
  5
316
330
40C
100
AcDbEntity
  8
DATA
  6
Continuous
 62
     7
100
AcDbCircle
 10
-396.5359026820923
 20
-400.0
 30
0.0
 40
2.45945944999994
  0
CIRCLE
  5
317
330
40C
100
AcDbEntity
  8
DATA
  6
Continuous
 62
     7
100
AcDbCircle
 10
-396.5359026820923
 20
-407.027027
 30
0.0
 40
2.45945944999994
  0
CIRCLE
  5
318
330
40C
100
AcDbEntity
  8
DATA
  6
Continuous
 62
     7
100
AcDbCircle
 10
-396.5359026820923
 20
-414.0540539999999
 30
0.0
 40
2.459459450000168
  0
CIRCLE
  5
319
330
40C
100
AcDbEntity
  8
DATA
  6
Continuous
 62
     7
100
AcDbCircle
 10
-396.5359026820923
 20
-421.0810809999999
 30
0.0
 40
2.45945944999994
  0
CIRCLE
  5
31A
330
40C
100
AcDbEntity
  8
DATA
  6
Continuous
 62
     7
100
AcDbCircle
 10
-396.5359026820923
 20
-428.1081079999998
 30
0.0
 40
2.459459450000168
  0
CIRCLE
  5
31B
330
40C
100
AcDbEntity
  8
DATA
  6
Continuous
 62
     7
100
AcDbCircle
 10
-396.5359026820923
 20
-435.1351349999999
 30
0.0
 40
2.45945944999994
  0
CIRCLE
  5
31C
330
40C
100
AcDbEntity
  8
DATA
  6
Continuous
 62
     7
100
AcDbCircle
 10
-396.5359026820923
 20
-442.162162
 30
0.0
 40
2.45945944999994
  0
CIRCLE
  5
31D
330
40C
100
AcDbEntity
  8
DATA
  6
Continuous
 62
     7
100
AcDbCircle
 10
-396.5359026820923
 20
-449.1891889999999
 30
0.0
 40
2.459459450000168
  0
CIRCLE
  5
31E
330
40C
100
AcDbEntity
  8
DATA
  6
Continuous
 62
     7
100
AcDbCircle
 10
-396.5359026820923
 20
-456.2162159999999
 30
0.0
 40
2.45945944999994
  0
CIRCLE
  5
31F
330
40C
100
AcDbEntity
  8
DATA
  6
Continuous
 62
     7
100
AcDbCircle
 10
-396.5359026820923
 20
-463.2432429999999
 30
0.0
 40
2.459459450000168
  0
CIRCLE
  5
320
330
40C
100
AcDbEntity
  8
DATA
  6
Continuous
 62
     7
100
AcDbCircle
 10
-396.5359026820923
 20
-470.2702699999999
 30
0.0
 40
2.45945944999994
  0
CIRCLE
  5
321
330
40C
100
AcDbEntity
  8
DATA
  6
Continuous
 62
     7
100
AcDbCircle
 10
-396.5359026820923
 20
-322.7027029999999
 30
0.0
 40
2.45945944999994
  0
CIRCLE
  5
322
330
40C
100
AcDbEntity
  8
DATA
  6
Continuous
 62
     7
100
AcDbCircle
 10
-396.5359026820923
 20
-329.72973
 30
0.0
 40
2.45945944999994
  0
ARC
  5
323
330
40C
100
AcDbEntity
  8
DATA
  6
Continuous
 62
     7
100
AcDbCircle
 10
-396.5359026820923
 20
-315.6756760000001
 30
0.0
 40
2.459459449999998
100
AcDbArc
 50
195.0882488000582
 51
138.430711369565
  0
ARC
  5
324
330
40C
100
AcDbEntity
  8
DATA
  6
Continuous
 62
     7
100
AcDbCircle
 10
-396.5359026820925
 20
-308.648649
 30
0.0
 40
2.459459450000096
100
AcDbArc
 50
243.7071371618162
 51
89.81182300781259
  0
ARC
  5
325
330
40C
100
AcDbEntity
  8
DATA
  6
Continuous
 62
     7
100
AcDbCircle
 10
-396.5359026820923
 20
-301.621622
 30
0.0
 40
2.459459449999892
100
AcDbArc
 50
282.1354982512437
 51
51.38346191838637
  0
CIRCLE
  5
326
330
40C
100
AcDbEntity
  8
DATA
  6
Continuous
 62
     7
100
AcDbCircle
 10
-396.5359026820923
 20
-477.297297
 30
0.0
 40
2.45945944999994
  0
ARC
  5
327
330
40C
100
AcDbEntity
  8
DATA
  6
Continuous
 62
     7
100
AcDbCircle
 10
-396.5359026820925
 20
-484.3243239999999
 30
0.0
 40
2.459459449999831
100
AcDbArc
 50
221.5692886306373
 51
164.9117511997323
  0
ARC
  5
328
330
40C
100
AcDbEntity
  8
DATA
  6
Continuous
 62
     7
100
AcDbCircle
 10
-396.5359026820923
 20
-491.351351
 30
0.0
 40
2.459459449999863
100
AcDbArc
 50
270.188176992206
 51
116.2928628381719
  0
ARC
  5
329
330
40C
100
AcDbEntity
  8
DATA
  6
Continuous
 62
     7
100
AcDbCircle
 10
-396.5359026820923
 20
-498.3783779999999
 30
0.0
 40
2.459459450000212
100
AcDbArc
 50
308.6165380815893
 51
77.86450174878182
  0
LINE
  5
32A
330
40C
100
AcDbEntity
  8
DATA
  6
Continuous
 62
     7
100
AcDbLine
 10
-366.4108109399997
 20
-283.00000045
 30
0.0
 11
-362.0540542
 21
-283.00000045
 31
0.0
  0
LINE
  5
32B
330
40C
100
AcDbEntity
  8
DATA
  6
Continuous
 62
     7
100
AcDbLine
 10
-362.0540542
 20
-283.00000045
 30
0.0
 11
-362.0540542
 21
-516.9999995499999
 31
0.0
  0
LINE
  5
32C
330
40C
100
AcDbEntity
  8
DATA
  6
Continuous
 62
     7
100
AcDbLine
 10
-400.0
 20
-320.9459462499999
 30
0.0
 11
-392.972973
 21
-291.0810815
 31
0.0
  0
LINE
  5
32D
330
40C
100
AcDbEntity
  8
DATA
  6
Continuous
 62
     7
100
AcDbLine
 10
-400.0
 20
-479.05405375
 30
0.0
 11
-392.972973
 21
-508.9189185
 31
0.0
  0
LINE
  5
32E
330
40C
100
AcDbEntity
  8
DATA
  6
Continuous
 62
     7
100
AcDbLine
 10
-400.0
 20
-320.9459462499999
 30
0.0
 11
-400.0
 21
-479.05405375
 31
0.0
  0
LINE
  5
32F
330
40C
100
AcDbEntity
  8
DATA
  6
Continuous
 62
     7
100
AcDbLine
 10
-392.972973
 20
-291.0810815
 30
0.0
 11
-392.972973
 21
-508.9189185
 31
0.0
  0
ARC
  5
330
330
40C
100
AcDbEntity
  8
DATA
  6
Continuous
 62
     7
100
AcDbCircle
 10
-358.7113680855034
 20
-356.0026107866497
 30
0.0
 40
73.40751008060668
100
AcDbArc
 50
96.02061643136222
 51
117.822346157759
  0
ARC
  5
331
330
40C
100
AcDbEntity
  8
DATA
  6
Continuous
 62
     7
100
AcDbCircle
 10
-350.7318994960635
 20
-1127.884192446696
 30
0.0
 40
844.96005176165
100
AcDbArc
 50
77.60122121210942
 51
90.76776540199869
  0
LINE
  5
332
330
40C
100
AcDbEntity
  8
DATA
  6
Continuous
 62
     7
100
AcDbLine
 10
-366.4108109399997
 20
-516.9999995499999
 30
0.0
 11
-362.0540542
 21
-516.9999995499999
 31
0.0
  0
ARC
  5
333
330
40C
100
AcDbEntity
  8
DATA
  6
Continuous
 62
     7
100
AcDbCircle
 10
-358.7113680855034
 20
-443.9973892133503
 30
0.0
 40
73.4075100806067
100
AcDbArc
 50
242.177653842241
 51
263.9793835686377
  0
ARC
  5
334
330
40C
100
AcDbEntity
  8
DATA
  6
Continuous
 62
     7
100
AcDbCircle
 10
-350.7318994960636
 20
327.8841924466963
 30
0.0
 40
844.9600517616499
100
AcDbArc
 50
269.2322345980013
 51
282.3987787878905
  0
CIRCLE
  5
335
330
40C
100
AcDbEntity
  8
DATA
  6
Continuous
 62
     7
100
AcDbCircle
 10
-137.4489537755314
 20
-400.0
 30
0.0
 40
6.0
  0
CIRCLE
  5
336
330
40C
100
AcDbEntity
  8
DATA
  6
Continuous
 62
     7
100
AcDbCircle
 10
-138.5030078255314
 20
-383.6462961352432
 30
0.0
 40
3.75
  0
LINE
  5
337
330
40C
100
AcDbEntity
  8
DATA
  6
Continuous
 62
     7
100
AcDbLine
 10
-152.7817872942851
 20
-374.7469705641497
 30
0.0
 11
-342.484861336569
 21
-367.9477893961845
 31
0.0
  0
ARC
  5
338
330
40C
100
AcDbEntity
  8
DATA
  6
Continuous
 62
     7
100
AcDbCircle
 10
-153.0270269999001
 20
-381.7697168891649
 30
0.0
 40
7.027027000000089
100
AcDbArc
 50
0.0
 51
87.99999999999943
  0
LINE
  5
339
330
40C
100
AcDbEntity
  8
DATA
  6
Continuous
 62
     7
100
AcDbLine
 10
-152.7817872942851
 20
-346.6388625641496
 30
0.0
 11
-342.484861336569
 21
-339.8396813961847
 31
0.0
  0
ARC
  5
33A
330
40C
100
AcDbEntity
  8
DATA
  6
Continuous
 62
     7
100
AcDbCircle
 10
-153.0270269999001
 20
-353.6616088891651
 30
0.0
 40
7.027027000000089
100
AcDbArc
 50
0.0
 51
87.99999999999949
  0
LINE
  5
33B
330
40C
100
AcDbEntity
  8
DATA
  6
Continuous
 62
     7
100
AcDbLine
 10
-152.3999999998498
 20
-318.5545048468775
 30
0.0
 11
-342.484861336569
 21
-311.7315733961846
 31
0.0
  0
ARC
  5
33C
330
40C
100
AcDbEntity
  8
DATA
  6
Continuous
 62
     7
100
AcDbCircle
 10
-153.0270269999001
 20
-325.5535008891652
 30
0.0
 40
7.027027000000089
100
AcDbArc
 50
0.0
 51
87.99999999999956
  0
LINE
  5
33D
330
40C
100
AcDbEntity
  8
DATA
  6
Continuous
 62
     7
100
AcDbLine
 10
-400.35135135
 20
-392.62162165
 30
0.0
 11
-400.0
 21
-392.62162165
 31
0.0
  0
LINE
  5
33E
330
40C
100
AcDbEntity
  8
DATA
  6
Continuous
 62
     7
100
AcDbLine
 10
-400.35135135
 20
-407.37837835
 30
0.0
 11
-400.0
 21
-407.37837835
 31
0.0
  0
LINE
  5
33F
330
40C
100
AcDbEntity
  8
DATA
  6
Continuous
 62
     7
100
AcDbLine
 10
-400.35135135
 20
-392.62162165
 30
0.0
 11
-400.35135135
 21
-407.37837835
 31
0.0
  0
LINE
  5
340
330
40C
100
AcDbEntity
  8
DATA
  6
Continuous
 62
     7
100
AcDbLine
 10
-145.9999999998498
 20
-320.3752293894131
 30
0.0
 11
-145.9999999998498
 21
-479.6247706105868
 31
0.0
  0
ARC
  5
341
330
40C
100
AcDbEntity
  8
DATA
  6
Continuous
 62
     7
100
AcDbCircle
 10
-155.9999999998499
 20
-320.3752293894131
 30
0.0
 40
10.00000000000011
100
AcDbArc
 50
0.0
 51
58.83443026227962
  0
ARC
  5
342
330
40C
100
AcDbEntity
  8
DATA
  6
Continuous
 62
     7
100
AcDbCircle
 10
-155.99999999985
 20
-479.6247706105868
 30
0.0
 40
10.00000000000024
100
AcDbArc
 50
301.1655697377209
 51
0.0
  0
LINE
  5
343
330
40C
100
AcDbEntity
  8
DATA
  6
Continuous
 62
     7
100
AcDbLine
 10
-152.7817872942851
 20
-425.2530294358503
 30
0.0
 11
-342.484861336569
 21
-432.0522106038153
 31
0.0
  0
ARC
  5
344
330
40C
100
AcDbEntity
  8
DATA
  6
Continuous
 62
     7
100
AcDbCircle
 10
-153.0270269999001
 20
-418.230283110835
 30
0.0
 40
7.027026999999792
100
AcDbArc
 50
272.0000000000006
 51
0.0
  0
LINE
  5
345
330
40C
100
AcDbEntity
  8
DATA
  6
Continuous
 62
     7
100
AcDbLine
 10
-152.7756974199347
 20
-453.5355286202104
 30
0.0
 11
-342.484861336569
 21
-460.1603186038155
 31
0.0
  0
ARC
  5
346
330
40C
100
AcDbEntity
  8
DATA
  6
Continuous
 62
     7
100
AcDbCircle
 10
-153.0270269999001
 20
-446.3383911108349
 30
0.0
 40
7.027027000000019
100
AcDbArc
 50
272.0000000000005
 51
0.0
  0
LINE
  5
347
330
40C
100
AcDbEntity
  8
DATA
  6
Continuous
 62
     7
100
AcDbLine
 10
-152.7817872942851
 20
-481.4692454358505
 30
0.0
 11
-342.484861336569
 21
-488.2684266038153
 31
0.0
  0
ARC
  5
348
330
40C
100
AcDbEntity
  8
DATA
  6
Continuous
 62
     7
100
AcDbCircle
 10
-153.0270269999001
 20
-474.4464991108348
 30
0.0
 40
7.027027000000246
100
AcDbArc
 50
272.0000000000004
 51
0.0
  0
LINE
  5
349
330
40C
100
AcDbEntity
  8
DATA
  6
Continuous
 62
     7
100
AcDbLine
 10
-145.9999999998498
 20
-400.0
 30
0.0
 11
-342.484861336569
 21
-400.0
 31
0.0
  0
LINE
  5
34A
330
40C
100
AcDbEntity
  8
DATA
  6
Continuous
 62
     7
100
AcDbLine
 10
-127.9931465147357
 20
-382.8906174379317
 30
0.0
 11
-140.5004170201198
 21
-367.8083206520273
 31
0.0
  0
LINE
  5
34B
330
40C
100
AcDbEntity
  8
DATA
  6
Continuous
 62
     7
100
AcDbLine
 10
-124.9999999998498
 20
-391.1889837426606
 30
0.0
 11
-124.9999999998498
 21
-408.8110162573394
 31
0.0
  0
LINE
  5
34C
330
40C
100
AcDbEntity
  8
DATA
  6
Continuous
 62
     7
100
AcDbLine
 10
-140.5004170201198
 20
-432.1916793479727
 30
0.0
 11
-127.9931465147357
 21
-417.1093825620682
 31
0.0
  0
LINE
  5
34D
330
40C
100
AcDbEntity
  8
DATA
  6
Continuous
 62
     7
100
AcDbLine
 10
-144.3492068220868
 20
-366.0
 30
0.0
 11
-145.9999999998498
 21
-366.0
 31
0.0
  0
LINE
  5
34E
330
40C
100
AcDbEntity
  8
DATA
  6
Continuous
 62
     7
100
AcDbLine
 10
-144.3492068220868
 20
-434.0
 30
0.0
 11
-145.9999999998498
 21
-434.0
 31
0.0
  0
ARC
  5
34F
330
40C
100
AcDbEntity
  8
DATA
  6
Continuous
 62
     7
100
AcDbCircle
 10
-137.9999999998498
 20
-391.1889837426606
 30
0.0
 40
13.0
100
AcDbArc
 50
0.0
 51
39.6678411183409
  0
ARC
  5
350
330
40C
100
AcDbEntity
  8
DATA
  6
Continuous
 62
     7
100
AcDbCircle
 10
-137.9999999998498
 20
-408.8110162573394
 30
0.0
 40
13.00000000000002
100
AcDbArc
 50
320.3321588816592
 51
0.0
  0
ARC
  5
351
330
40C
100
AcDbEntity
  8
DATA
  6
Continuous
 62
     7
100
AcDbCircle
 10
-144.3492068220867
 20
-371.0
 30
0.0
 40
4.999999999999993
100
AcDbArc
 50
39.66784111834161
 51
90.00000000000129
  0
ARC
  5
352
330
40C
100
AcDbEntity
  8
DATA
  6
Continuous
 62
     7
100
AcDbCircle
 10
-144.3492068220868
 20
-429.0
 30
0.0
 40
5.0
100
AcDbArc
 50
270.0
 51
320.3321588816588
  0
CIRCLE
  5
353
330
40C
100
AcDbEntity
  8
DATA
  6
Continuous
 62
     7
100
AcDbCircle
 10
-138.5030078255314
 20
-416.3537038647568
 30
0.0
 40
3.75
  0
CIRCLE
  5
354
330
40C
100
AcDbEntity
  8
DATA
  6
Continuous
 62
     7
100
AcDbCircle
 10
100.0
 20
-400.0
 30
0.0
 40
116.9999999999999
  0
LWPOLYLINE
  5
355
330
40C
100
AcDbEntity
  8
DATA
  6
Continuous
 62
     7
100
AcDbPolyline
 90
       16
 70
     1
 43
0.0
 10
100.0
 20
-487.5
 10
133.4848003319452
 20
-480.8394590947376
 10
161.8718433538229
 20
-461.8718433538228
 10
180.8394590947375
 20
-433.4848003319453
 10
187.5
 20
-400.0
 10
180.8394590947375
 20
-366.5151996680547
 10
161.8718433538229
 20
-338.1281566461772
 10
133.4848003319454
 20
-319.1605409052625
 10
100.0
 20
-312.5
 10
66.5151996680546
 20
-319.1605409052625
 10
38.12815664617711
 20
-338.1281566461772
 10
19.16054090526245
 20
-366.5151996680547
 10
12.5
 20
-400.0
 10
19.16054090526234
 20
-433.4848003319453
 10
38.12815664617699
 20
-461.8718433538228
 10
66.5151996680546
 20
-480.8394590947376
  0
LINE
  5
368
330
40C
100
AcDbEntity
  8
DATA
  6
Continuous
 62
     7
100
AcDbLine
 10
116.5
 20
-446.4999999999999
 30
0.0
 11
36.19666693890497
 21
-446.4999999999999
 31
0.0
  0
LINE
  5
369
330
40C
100
AcDbEntity
  8
DATA
  6
Continuous
 62
     7
100
AcDbLine
 10
36.19666693890497
 20
-353.5
 30
0.0
 11
116.5
 21
-353.5
 31
0.0
  0
LINE
  5
36A
330
40C
100
AcDbEntity
  8
DATA
  6
Continuous
 62
     7
100
AcDbLine
 10
168.1958549962663
 20
-438.0
 30
0.0
 11
116.5
 21
-438.0
 31
0.0
  0
LINE
  5
36B
330
40C
100
AcDbEntity
  8
DATA
  6
Continuous
 62
     7
100
AcDbLine
 10
116.5
 20
-362.0
 30
0.0
 11
168.1958549962663
 21
-362.0
 31
0.0
  0
LINE
  5
36C
330
40C
100
AcDbEntity
  8
DATA
  6
Continuous
 62
     7
100
AcDbLine
 10
116.5
 20
-446.4999999999999
 30
0.0
 11
116.5
 21
-438.0
 31
0.0
  0
LINE
  5
36D
330
40C
100
AcDbEntity
  8
DATA
  6
Continuous
 62
     7
100
AcDbLine
 10
116.5
 20
-362.0
 30
0.0
 11
116.5
 21
-353.5
 31
0.0
  0
CIRCLE
  5
36E
330
40C
100
AcDbEntity
  8
DATA
  6
Continuous
 62
     7
100
AcDbCircle
 10
42.99490148365317
 20
-400.0
 30
0.0
 40
10.08152640000026
  0
TEXT
  5
36F
330
40C
100
AcDbEntity
  8
DATA
 62
     7
100
AcDbText
 10
34.66379112845122
 20
-404.3634586127604
 30
0.0
 40
2.394759064414063
  1
17
 50
13.99999999999999
 41
0.7
 11
34.08444647608368
 21
-402.0398341270987
 31
0.0
100
AcDbText
 73
     3
  0
TEXT
  5
370
330
40C
100
AcDbEntity
  8
DATA
 62
     7
100
AcDbText
 10
48.85482385803141
 20
-403.3923458821264
 30
0.0
 40
2.394759064414063
  1
15
 50
355.0
 41
0.7
 11
49.0635408629921
 21
-401.00669959895
 31
0.0
100
AcDbText
 73
     3
  0
TEXT
  5
371
330
40C
100
AcDbEntity
  8
DATA
 62
     7
100
AcDbText
 10
44.01925254774469
 20
-410.1471861405532
 30
0.0
 40
2.394759064414063
  1
8Ω
 50
90.0
 41
0.7
 11
41.62449348333063
 21
-410.1471861405532
 31
0.0
100
AcDbText
 73
     3
  0
TEXT
  5
372
330
40C
100
AcDbEntity
  8
DATA
 62
     7
100
AcDbText
 10
44.18715433553759
 20
-394.5418167993571
 30
0.0
 40
2.394759064414063
  1
8Ω
 50
90.0
 41
0.7
 11
41.79239527112353
 21
-394.5418167993571
 31
0.0
100
AcDbText
 73
     3
  0
TEXT
  5
373
330
40C
100
AcDbEntity
  8
DATA
 62
     7
100
AcDbText
 10
44.74732889597112
 20
-405.9142309836145
 30
0.0
 40
2.394759064414063
  1
7.5
 50
329.9999999999999
 41
0.7
 11
45.94470842817816
 21
-403.8403087978889
 31
0.0
100
AcDbText
 73
     3
  0
CIRCLE
  5
374
330
40C
100
AcDbEntity
  8
DATA
  6
Continuous
 62
     7
100
AcDbCircle
 10
47.9025298362501
 20
-393.0
 30
0.0
 40
0.5240783107434366
  0
TEXT
  5
375
330
40C
100
AcDbEntity
  8
DATA
 62
     7
100
AcDbText
 10
35.74833119194755
 20
-392.4957569689578
 30
0.0
 40
2.394759064414063
  1
3.75
 50
300.0
 41
0.7
 11
37.82225337767318
 21
-391.2983774367507
 31
0.0
100
AcDbText
 73
     3
  0
TEXT
  5
376
330
40C
100
AcDbEntity
  8
DATA
 62
     7
100
AcDbText
 10
33.13719177331721
 20
-398.1667079390824
 30
0.0
 40
2.394759064414063
  1
7.5
 50
329.9999999999999
 41
0.7
 11
34.33457130552425
 21
-396.0927857533568
 31
0.0
100
AcDbText
 73
     3
  0
TEXT
  5
377
330
40C
100
AcDbEntity
  8
DATA
 62
     7
100
AcDbText
 10
37.51516162753588
 20
-408.0532108886909
 30
0.0
 40
2.394759064414063
  1
30
 50
30.00000000000003
 41
0.7
 11
36.31778209532885
 21
-405.9792887029654
 31
0.0
100
AcDbText
 73
     3
  0
TEXT
  5
378
330
40C
100
AcDbEntity
  8
DATA
 62
     7
100
AcDbText
 10
49.02355014855166
 20
-398.591087674146
 30
0.0
 40
2.394759064414063
  1
30
 50
20.00000000000002
 41
0.7
 11
48.20449431011031
 21
-396.340750252756
 31
0.0
100
AcDbText
 73
     3
  0
LWPOLYLINE
  5
379
330
40C
100
AcDbEntity
  8
DATA
  6
Continuous
 62
     7
100
AcDbPolyline
 90
        4
 70
     1
 43
0.0
 10
41.097312129996
 20
-395.7715703361932
 10
42.68585058774283
 20
-395.4914681461996
 10
44.22641263270861
 20
-404.2284296638068
 10
42.63787417496177
 20
-404.5085318538004
  0
LINE
  5
380
330
40C
100
AcDbEntity
  8
DATA
  6
Continuous
 62
     7
100
AcDbLine
 10
41.986748843653
 20
-387.045238576
 30
0.0
 11
42.99490148365292
 21
-389.0615438559999
 31
0.0
  0
LINE
  5
381
330
40C
100
AcDbEntity
  8
DATA
  6
Continuous
 62
     7
100
AcDbLine
 10
42.99490148365292
 20
-389.0615438559999
 30
0.0
 11
44.00305412365287
 21
-387.045238576
 31
0.0
  0
LINE
  5
382
330
40C
100
AcDbEntity
  8
DATA
  6
Continuous
 62
     7
100
AcDbLine
 10
41.986748843653
 20
-387.045238576
 30
0.0
 11
44.00305412365287
 21
-387.045238576
 31
0.0
  0
LINE
  5
383
330
40C
100
AcDbEntity
  8
DATA
  6
Continuous
 62
     7
100
AcDbLine
 10
41.986748843653
 20
-412.954761424
 30
0.0
 11
42.99490148365292
 21
-410.9384561440001
 31
0.0
  0
LINE
  5
384
330
40C
100
AcDbEntity
  8
DATA
  6
Continuous
 62
     7
100
AcDbLine
 10
42.99490148365292
 20
-410.9384561440001
 30
0.0
 11
44.00305412365287
 21
-412.954761424
 31
0.0
  0
LINE
  5
385
330
40C
100
AcDbEntity
  8
DATA
  6
Continuous
 62
     7
100
AcDbLine
 10
41.986748843653
 20
-412.954761424
 30
0.0
 11
44.00305412365287
 21
-412.954761424
 31
0.0
  0
TEXT
  5
386
330
40C
100
AcDbEntity
  8
DATA
 62
     7
100
AcDbText
 10
38.6329489986957
 20
-398.6765392288812
 30
0.0
 40
2.394759064414063
  1
70V
 50
280.0
 41
0.7
 11
40.99132629192692
 21
-398.2606936813943
 31
0.0
100
AcDbText
 73
     3
  0
TEXT
  5
387
330
40C
100
AcDbEntity
  8
DATA
 62
     7
100
AcDbText
 10
43.44445615606969
 20
-396.5882487459229
 30
0.0
 40
2.394759064414063
  1
100V
 50
279.9999999999999
 41
0.7
 11
45.80283344930093
 21
-396.172403198436
 31
0.0
100
AcDbText
 73
     3
  0
LWPOLYLINE
  5
388
330
40C
100
AcDbEntity
  8
DATA
  6
Continuous
 62
     7
100
AcDbPolyline
 90
        4
 70
     1
 43
0.0
 10
99.0
 20
-366.0
 10
101.0
 20
-366.0
 10
101.0
 20
-434.0
 10
99.0
 20
-434.0
  0
ARC
  5
38F
330
40C
100
AcDbEntity
  8
DATA
  6
Continuous
 62
     7
100
AcDbCircle
 10
100.7016388079938
 20
-400.0
 30
0.0
 40
81.70163880799389
100
AcDbArc
 50
147.2443407765758
 51
212.7556592234241
  0
ARC
  5
390
330
40C
100
AcDbEntity
  8
DATA
  6
Continuous
 62
     7
100
AcDbCircle
 10
36.19666693890497
 20
-441.5
 30
0.0
 40
5.000000000000047
100
AcDbArc
 50
212.7556592234244
 51
270.0
  0
ARC
  5
391
330
40C
100
AcDbEntity
  8
DATA
  6
Continuous
 62
     7
100
AcDbCircle
 10
36.19666693890497
 20
-358.4999999999999
 30
0.0
 40
5.0
100
AcDbArc
 50
90.0
 51
147.2443407765755
  0
ARC
  5
392
330
40C
100
AcDbEntity
  8
DATA
  6
Continuous
 62
     7
100
AcDbCircle
 10
98.95611643644828
 20
-400.0
 30
0.0
 40
81.70163880799382
100
AcDbArc
 50
334.5173014668832
 51
25.48269853311678
  0
ARC
  5
393
330
40C
100
AcDbEntity
  8
DATA
  6
Continuous
 62
     7
100
AcDbCircle
 10
168.1958549962663
 20
-433.0
 30
0.0
 40
5.0
100
AcDbArc
 50
270.0
 51
334.5173014668834
  0
ARC
  5
394
330
40C
100
AcDbEntity
  8
DATA
  6
Continuous
 62
     7
100
AcDbCircle
 10
168.1958549962663
 20
-367.0
 30
0.0
 40
4.999999999999913
100
AcDbArc
 50
25.48269853311666
 51
90.0
  0
LINE
  5
395
330
40C
100
AcDbEntity
  8
DATA
  6
Continuous
 62
     7
100
AcDbLine
 10
537.5
 20
-325.0
 30
0.0
 11
762.5
 21
-325.0
 31
0.0
  0
ARC
  5
396
330
40C
100
AcDbEntity
  8
DATA
  6
Continuous
 62
     7
100
AcDbCircle
 10
-178.363868120537
 20
-455.9650180399698
 30
0.0
 40
42.38277554121853
100
AcDbArc
 50
282.3392054472977
 51
310.5241584391652
  0
ARC
  5
397
330
40C
100
AcDbEntity
  8
DATA
  6
Continuous
 62
     7
100
AcDbCircle
 10
-178.363868120537
 20
-344.03498196003
 30
0.0
 40
42.38277554121853
100
AcDbArc
 50
49.47584156083479
 51
77.66079455270221
  0
TEXT
  5
398
330
40C
100
AcDbEntity
  8
DATA
 62
     7
100
AcDbText
 10
499.9999999999999
 20
-1084.404765
 30
0.0
 40
24.4326171875
  1
JBL PROFESSIONAL
 41
0.7
 11
499.9999999999999
 21
-1059.9721478125
 31
0.0
100
AcDbText
 73
     3
  0
TEXT
  5
399
330
40C
100
AcDbEntity
  8
DATA
 62
     7
100
AcDbText
 10
499.9999999999999
 20
-1156.904765
 30
0.0
 40
24.4326171875
  1
Control 64P/T
 41
0.7
 11
499.9999999999999
 21
-1132.4721478125
 31
0.0
100
AcDbText
 73
     3
  0
TEXT
  5
39A
330
40C
100
AcDbEntity
  8
DATA
 62
     7
100
AcDbText
 10
527.7464228877313
 20
-738.5736762152778
 30
0.0
 40
27.14735243055556
  1
入力選択スイッチ拡大図
 41
0.7
 72
     1
 11
650.0
 21
-725.0
 31
0.0
100
AcDbText
 73
     2
  0
LINE
  5
39B
330
40C
100
AcDbEntity
  8
DATA
  6
Continuous
 62
     7
100
AcDbLine
 10
450.0
 20
-750.0
 30
0.0
 11
850.0
 21
-750.0
 31
0.0
  0
ENDSEC
  0
SECTION
  2
OBJECTS
  0
DICTIONARY
  5
3A9
330
0
100
AcDbDictionary
281
     1
  3
ACAD_CIP_PREVIOUS_PRODUCT_INFO
350
425
  3
ACAD_COLOR
350
3FF
  3
ACAD_DETAILVIEWSTYLE
350
406
  3
ACAD_GROUP
350
3AA
  3
ACAD_LAYOUT
350
3FE
  3
ACAD_MATERIAL
350
3AD
  3
ACAD_MLEADERSTYLE
350
402
  3
ACAD_MLINESTYLE
350
3FB
  3
ACAD_PLOTSETTINGS
350
3FD
  3
ACAD_PLOTSTYLENAME
350
3AB
  3
ACAD_SCALELIST
350
3DF
  3
ACAD_SECTIONVIEWSTYLE
350
404
  3
ACAD_TABLESTYLE
350
400
  3
ACAD_VISUALSTYLE
350
3C6
  3
ACDB_RECOMPOSE_DATA
350
43F
  3
AcDbVariableDictionary
350
432
  3
DWGPROPS
350
440
  0
DICTIONARY
  5
426
330
3F1
100
AcDbDictionary
280
     1
281
     1
  3
ADSK_XREC_LAYER_RECONCILED
360
427
  0
DICTIONARY
  5
428
330
410
100
AcDbDictionary
280
     1
281
     1
  3
ADSK_XREC_LAYER_RECONCILED
360
429
  0
DICTIONARY
  5
42A
330
41C
100
AcDbDictionary
280
     1
281
     1
  3
ADSK_XREC_LAYER_RECONCILED
360
42B
  0
DICTIONARY
  5
42C
330
41D
100
AcDbDictionary
280
     1
281
     1
  3
ADSK_XREC_LAYER_RECONCILED
360
42D
  0
DICTIONARY
  5
42E
330
41E
100
AcDbDictionary
280
     1
281
     1
  3
ADSK_XREC_LAYER_RECONCILED
360
42F
  0
DICTIONARY
  5
430
330
41F
100
AcDbDictionary
280
     1
281
     1
  3
ADSK_XREC_LAYER_RECONCILED
360
431
  0
XRECORD
  5
425
102
{ACAD_REACTORS
330
3A9
102
}
330
3A9
100
AcDbXrecord
280
     1
300
ACDLT
300
2017
300
ACDLT_F_S
  0
DICTIONARY
  5
3FF
102
{ACAD_REACTORS
330
3A9
102
}
330
3A9
100
AcDbDictionary
281
     1
  0
DICTIONARY
  5
406
102
{ACAD_REACTORS
330
3A9
102
}
330
3A9
100
AcDbDictionary
281
     1
  3
Imperial24
350
407
  0
DICTIONARY
  5
3AA
102
{ACAD_REACTORS
330
3A9
102
}
330
3A9
100
AcDbDictionary
281
     1
  0
DICTIONARY
  5
3FE
102
{ACAD_REACTORS
330
3A9
102
}
330
3A9
100
AcDbDictionary
281
     1
  3
Model
350
40F
  3
レイアウト1
350
40B
  0
DICTIONARY
  5
3AD
102
{ACAD_REACTORS
330
3A9
102
}
330
3A9
100
AcDbDictionary
281
     1
  3
ByBlock
350
3B6
  3
ByLayer
350
3AE
  3
Global
350
3BE
  0
DICTIONARY
  5
402
102
{ACAD_REACTORS
330
3A9
102
}
330
3A9
100
AcDbDictionary
281
     1
  3
Standard
350
403
  0
DICTIONARY
  5
3FB
102
{ACAD_REACTORS
330
3A9
102
}
330
3A9
100
AcDbDictionary
281
     1
  3
Standard
350
3FC
  0
DICTIONARY
  5
3FD
102
{ACAD_REACTORS
330
3A9
102
}
330
3A9
100
AcDbDictionary
281
     1
  0
ACDBDICTIONARYWDFLT
  5
3AB
102
{ACAD_REACTORS
330
3A9
102
}
330
3A9
100
AcDbDictionary
281
     1
  3
Normal
350
3AC
100
AcDbDictionaryWithDefault
340
3AC
  0
DICTIONARY
  5
3DF
102
{ACAD_REACTORS
330
3A9
102
}
330
3A9
100
AcDbDictionary
281
     1
  3
A0
350
3E0
  3
A1
350
3E1
  3
A2
350
3E2
  3
A3
350
3E3
  3
A4
350
3E4
  3
A5
350
3E5
  3
A6
350
3E6
  3
A7
350
3E7
  3
A8
350
3E8
  3
A9
350
3E9
  3
B0
350
3EA
  3
B1
350
3EB
  3
B2
350
3EC
  3
B3
350
3ED
  3
B4
350
3EE
  3
B5
350
3EF
  3
B6
350
3F0
  0
DICTIONARY
  5
404
102
{ACAD_REACTORS
330
3A9
102
}
330
3A9
100
AcDbDictionary
281
     1
  3
Imperial24
350
405
  0
DICTIONARY
  5
400
102
{ACAD_REACTORS
330
3A9
102
}
330
3A9
100
AcDbDictionary
281
     1
  3
Standard
350
401
  0
DICTIONARY
  5
3C6
102
{ACAD_REACTORS
330
3A9
102
}
330
3A9
100
AcDbDictionary
281
     1
  3
2dWireframe
350
3CC
  3
Basic
350
3CB
  3
Brighten
350
3D2
  3
ColorChange
350
3D6
  3
Conceptual
350
3CF
  3
Dim
350
3D1
  3
EdgeColorOff
350
3DE
  3
Facepattern
350
3D5
  3
Flat
350
3C7
  3
FlatWithEdges
350
3C8
  3
Gouraud
350
3C9
  3
GouraudWithEdges
350
3CA
  3
Hidden
350
3CE
  3
JitterOff
350
3DC
  3
Linepattern
350
3D4
  3
OverhangOff
350
3DD
  3
Realistic
350
3D0
  3
Shaded
350
3DB
  3
Shaded with edges
350
3DA
  3
Shades of Gray
350
3D7
  3
Sketchy
350
3D8
  3
Thicken
350
3D3
  3
Wireframe
350
3CD
  3
X-Ray
350
3D9
  0
XRECORD
  5
43F
102
{ACAD_REACTORS
330
3A9
102
}
330
3A9
100
AcDbXrecord
280
     1
 90
        1
330
401
  0
DICTIONARY
  5
432
102
{ACAD_REACTORS
330
3A9
102
}
330
3A9
100
AcDbDictionary
281
     1
  3
CANNOSCALE
350
437
  3
CMLEADERSTYLE
350
434
  3
CTABLESTYLE
350
433
  3
CVIEWDETAILSTYLE
350
435
  3
CVIEWSECTIONSTYLE
350
436
  3
DIMASSOC
350
43A
  3
INDEXCTL
350
439
  3
SORTENTS
350
438
  3
XCLIPFRAME
350
43B
  0
XRECORD
  5
440
102
{ACAD_REACTORS
330
3A9
102
}
330
3A9
100
AcDbXrecord
280
     1
  1
DWGPROPS COOKIE
  2

  3

  4

  6

  7

  8
sasaki_n
  9

300
=
301
=
302
=
303
=
304
=
305
=
306
=
307
=
308
=
309
=
 40
0.0003125
 41
2457823.496516204
 42
2457823.549965278
  1

 90
        0
  0
XRECORD
  5
427
102
{ACAD_REACTORS
330
426
102
}
330
426
100
AcDbXrecord
280
     1
290
     1
  0
XRECORD
  5
429
102
{ACAD_REACTORS
330
428
102
}
330
428
100
AcDbXrecord
280
     1
290
     1
  0
XRECORD
  5
42B
102
{ACAD_REACTORS
330
42A
102
}
330
42A
100
AcDbXrecord
280
     1
290
     1
  0
XRECORD
  5
42D
102
{ACAD_REACTORS
330
42C
102
}
330
42C
100
AcDbXrecord
280
     1
290
     1
  0
XRECORD
  5
42F
102
{ACAD_REACTORS
330
42E
102
}
330
42E
100
AcDbXrecord
280
     1
290
     1
  0
XRECORD
  5
431
102
{ACAD_REACTORS
330
430
102
}
330
430
100
AcDbXrecord
280
     1
290
     1
  0
ACDBDETAILVIEWSTYLE
  5
407
102
{ACAD_XDICTIONARY
360
478
102
}
102
{ACAD_REACTORS
330
406
102
}
330
406
100
AcDbModelDocViewStyle
 70
     0
  3
Imperial24
290
     0
100
AcDbDetailViewStyle
 70
     0
 71
     0
 90
        3
 71
     1
340
3F2
 40
0.24
340
0
 40
0.24
300

 40
0.36
280
     3
 71
     2
340
3F9
 90
       25
 71
     3
340
3F2
 40
0.24
 90
        1
 40
0.75
 90
        1
300
%<\AcVar ViewType \f "%tc1">% %<\AcVar ViewDetailId>%\PSCALE %<\AcVar ViewScale \f "%sn">%
 71
     4
340
3F9
 90
       25
340
3F9
 90
       25
280
     0
  0
LAYOUT
  5
40F
102
{ACAD_XDICTIONARY
360
47C
102
}
102
{ACAD_REACTORS
330
3FE
102
}
330
3FE
100
AcDbPlotSettings
  1

  2
DocuPrint 3000-2
  4

  6

 40
0.0
 41
0.0
 42
0.0
 43
0.0
 44
0.0
 45
0.0
 46
0.0
 47
0.0
 48
0.0
 49
0.0
140
0.0
141
0.0
142
1.0
143
1.0
 70
  1712
 72
     0
 73
     0
 74
     0
  7

 75
     0
147
1.0
148
0.0
149
0.0
100
AcDbLayout
  1
Model
 70
     1
 71
     0
 10
0.0
 20
0.0
 11
12.0
 21
9.0
 12
0.0
 22
0.0
 32
0.0
 14
0.0
 24
0.0
 34
0.0
 15
0.0
 25
0.0
 35
0.0
146
0.0
 13
0.0
 23
0.0
 33
0.0
 16
1.0
 26
0.0
 36
0.0
 17
0.0
 27
1.0
 37
0.0
 76
     0
330
40C
331
411
  0
LAYOUT
  5
40B
102
{ACAD_XDICTIONARY
360
47A
102
}
102
{ACAD_REACTORS
330
3FE
102
}
330
3FE
100
AcDbPlotSettings
  1

  2
DocuPrint 3000-2
  4

  6

 40
0.0
 41
0.0
 42
0.0
 43
0.0
 44
0.0
 45
0.0
 46
0.0
 47
0.0
 48
0.0
 49
0.0
140
0.0
141
0.0
142
1.0
143
1.0
 70
   688
 72
     0
 73
     0
 74
     5
  7

 75
    16
147
1.0
148
0.0
149
0.0
100
AcDbLayout
  1
レイアウト1
 70
     0
 71
     1
 10
0.0
 20
0.0
 11
12.0
 21
9.0
 12
0.0
 22
0.0
 32
0.0
 14
1.000000000000000E+20
 24
1.000000000000000E+20
 34
1.000000000000000E+20
 15
-1.000000000000000E+20
 25
-1.000000000000000E+20
 35
-1.000000000000000E+20
146
0.0
 13
0.0
 23
0.0
 33
0.0
 16
1.0
 26
0.0
 36
0.0
 17
0.0
 27
1.0
 37
0.0
 76
     0
330
408
  0
MATERIAL
  5
3B6
102
{ACAD_XDICTIONARY
360
3B7
102
}
102
{ACAD_REACTORS
330
3AD
102
}
330
3AD
100
AcDbMaterial
  1
ByBlock
 72
     0
 43
0.0208333333333333
 43
0.0
 43
0.0
 43
0.0
 43
0.0
 43
0.0208333333333333
 43
0.0
 43
0.0
 43
0.0
 43
0.0
 43
1.0
 43
0.0
 43
0.0
 43
0.0
 43
0.0
 43
1.0
 77
     0
 47
0.0208333333333333
 47
0.0
 47
0.0
 47
0.0
 47
0.0
 47
0.0208333333333333
 47
0.0
 47
0.0
 47
0.0
 47
0.0
 47
1.0
 47
0.0
 47
0.0
 47
0.0
 47
0.0
 47
1.0
171
     0
 49
0.0208333333333333
 49
0.0
 49
0.0
 49
0.0
 49
0.0
 49
0.0208333333333333
 49
0.0
 49
0.0
 49
0.0
 49
0.0
 49
1.0
 49
0.0
 49
0.0
 49
0.0
 49
0.0
 49
1.0
175
     0
142
0.0208333333333333
142
0.0
142
0.0
142
0.0
142
0.0
142
0.0208333333333333
142
0.0
142
0.0
142
0.0
142
0.0
142
1.0
142
0.0
142
0.0
142
0.0
142
0.0
142
1.0
179
     0
144
0.0208333333333333
144
0.0
144
0.0
144
0.0
144
0.0
144
0.0208333333333333
144
0.0
144
0.0
144
0.0
144
0.0
144
1.0
144
0.0
144
0.0
144
0.0
144
0.0
144
1.0
147
0.0208333333333333
147
0.0
147
0.0
147
0.0
147
0.0
147
0.0208333333333333
147
0.0
147
0.0
147
0.0
147
0.0
147
1.0
147
0.0
147
0.0
147
0.0
147
0.0
147
1.0
  0
MATERIAL
  5
3AE
102
{ACAD_XDICTIONARY
360
3AF
102
}
102
{ACAD_REACTORS
330
3AD
102
}
330
3AD
100
AcDbMaterial
  1
ByLayer
 72
     0
 43
0.0208333333333333
 43
0.0
 43
0.0
 43
0.0
 43
0.0
 43
0.0208333333333333
 43
0.0
 43
0.0
 43
0.0
 43
0.0
 43
1.0
 43
0.0
 43
0.0
 43
0.0
 43
0.0
 43
1.0
 77
     0
 47
0.0208333333333333
 47
0.0
 47
0.0
 47
0.0
 47
0.0
 47
0.0208333333333333
 47
0.0
 47
0.0
 47
0.0
 47
0.0
 47
1.0
 47
0.0
 47
0.0
 47
0.0
 47
0.0
 47
1.0
171
     0
 49
0.0208333333333333
 49
0.0
 49
0.0
 49
0.0
 49
0.0
 49
0.0208333333333333
 49
0.0
 49
0.0
 49
0.0
 49
0.0
 49
1.0
 49
0.0
 49
0.0
 49
0.0
 49
0.0
 49
1.0
175
     0
142
0.0208333333333333
142
0.0
142
0.0
142
0.0
142
0.0
142
0.0208333333333333
142
0.0
142
0.0
142
0.0
142
0.0
142
1.0
142
0.0
142
0.0
142
0.0
142
0.0
142
1.0
179
     0
144
0.0208333333333333
144
0.0
144
0.0
144
0.0
144
0.0
144
0.0208333333333333
144
0.0
144
0.0
144
0.0
144
0.0
144
1.0
144
0.0
144
0.0
144
0.0
144
0.0
144
1.0
147
0.0208333333333333
147
0.0
147
0.0
147
0.0
147
0.0
147
0.0208333333333333
147
0.0
147
0.0
147
0.0
147
0.0
147
1.0
147
0.0
147
0.0
147
0.0
147
0.0
147
1.0
  0
MATERIAL
  5
3BE
102
{ACAD_XDICTIONARY
360
3BF
102
}
102
{ACAD_REACTORS
330
3AD
102
}
330
3AD
100
AcDbMaterial
  1
Global
 72
     0
 43
0.0208333333333333
 43
0.0
 43
0.0
 43
0.0
 43
0.0
 43
0.0208333333333333
 43
0.0
 43
0.0
 43
0.0
 43
0.0
 43
1.0
 43
0.0
 43
0.0
 43
0.0
 43
0.0
 43
1.0
 77
     0
 47
0.0208333333333333
 47
0.0
 47
0.0
 47
0.0
 47
0.0
 47
0.0208333333333333
 47
0.0
 47
0.0
 47
0.0
 47
0.0
 47
1.0
 47
0.0
 47
0.0
 47
0.0
 47
0.0
 47
1.0
171
     0
 49
0.0208333333333333
 49
0.0
 49
0.0
 49
0.0
 49
0.0
 49
0.0208333333333333
 49
0.0
 49
0.0
 49
0.0
 49
0.0
 49
1.0
 49
0.0
 49
0.0
 49
0.0
 49
0.0
 49
1.0
175
     0
142
0.0208333333333333
142
0.0
142
0.0
142
0.0
142
0.0
142
0.0208333333333333
142
0.0
142
0.0
142
0.0
142
0.0
142
1.0
142
0.0
142
0.0
142
0.0
142
0.0
142
1.0
179
     0
144
0.0208333333333333
144
0.0
144
0.0
144
0.0
144
0.0
144
0.0208333333333333
144
0.0
144
0.0
144
0.0
144
0.0
144
1.0
144
0.0
144
0.0
144
0.0
144
0.0
144
1.0
147
0.0208333333333333
147
0.0
147
0.0
147
0.0
147
0.0
147
0.0208333333333333
147
0.0
147
0.0
147
0.0
147
0.0
147
1.0
147
0.0
147
0.0
147
0.0
147
0.0
147
1.0
  0
MLEADERSTYLE
  5
403
102
{ACAD_REACTORS
330
402
102
}
330
402
100
AcDbMLeaderStyle
170
     2
171
     1
172
     0
 90
        2
 40
0.0
 41
0.0
173
     1
 91
-1056964608
340
3F7
 92
       -2
290
     1
 42
0.09
291
     1
 43
0.36
  3
Standard
 44
0.18
300

342
3F2
174
     1
178
     6
175
     1
176
     0
 93
-1056964608
 45
0.18
292
     0
297
     0
 46
0.18
 94
-1056964608
 47
1.0
 49
1.0
140
1.0
293
     1
141
0.0
294
     1
177
     0
142
1.0
295
     0
296
     0
143
0.125
1001
ACAD_MLEADERVER
1070
     2
  0
MLINESTYLE
  5
3FC
102
{ACAD_REACTORS
330
3FB
102
}
330
3FB
100
AcDbMlineStyle
  2
STANDARD
 70
     0
  3

 62
   256
 51
90.0
 52
90.0
 71
     2
 49
0.5
 62
   256
  6
BYLAYER
 49
-0.5
 62
   256
  6
BYLAYER
  0
ACDBPLACEHOLDER
  5
3AC
102
{ACAD_REACTORS
330
3AB
102
}
330
3AB
  0
SCALE
  5
3E0
102
{ACAD_REACTORS
330
3DF
102
}
330
3DF
100
AcDbScale
 70
     0
300
1:1
140
1.0
141
1.0
290
     1
  0
SCALE
  5
3E1
102
{ACAD_REACTORS
330
3DF
102
}
330
3DF
100
AcDbScale
 70
     0
300
1/128" = 1'-0"
140
0.0078125
141
12.0
290
     0
  0
SCALE
  5
3E2
102
{ACAD_REACTORS
330
3DF
102
}
330
3DF
100
AcDbScale
 70
     0
300
1/64" = 1'-0"
140
0.015625
141
12.0
290
     0
  0
SCALE
  5
3E3
102
{ACAD_REACTORS
330
3DF
102
}
330
3DF
100
AcDbScale
 70
     0
300
1/32" = 1'-0"
140
0.03125
141
12.0
290
     0
  0
SCALE
  5
3E4
102
{ACAD_REACTORS
330
3DF
102
}
330
3DF
100
AcDbScale
 70
     0
300
1/16" = 1'-0"
140
0.0625
141
12.0
290
     0
  0
SCALE
  5
3E5
102
{ACAD_REACTORS
330
3DF
102
}
330
3DF
100
AcDbScale
 70
     0
300
3/32" = 1'-0"
140
0.09375
141
12.0
290
     0
  0
SCALE
  5
3E6
102
{ACAD_REACTORS
330
3DF
102
}
330
3DF
100
AcDbScale
 70
     0
300
1/8" = 1'-0"
140
0.125
141
12.0
290
     0
  0
SCALE
  5
3E7
102
{ACAD_REACTORS
330
3DF
102
}
330
3DF
100
AcDbScale
 70
     0
300
3/16" = 1'-0"
140
0.1875
141
12.0
290
     0
  0
SCALE
  5
3E8
102
{ACAD_REACTORS
330
3DF
102
}
330
3DF
100
AcDbScale
 70
     0
300
1/4" = 1'-0"
140
0.25
141
12.0
290
     0
  0
SCALE
  5
3E9
102
{ACAD_REACTORS
330
3DF
102
}
330
3DF
100
AcDbScale
 70
     0
300
3/8" = 1'-0"
140
0.375
141
12.0
290
     0
  0
SCALE
  5
3EA
102
{ACAD_REACTORS
330
3DF
102
}
330
3DF
100
AcDbScale
 70
     0
300
1/2" = 1'-0"
140
0.5
141
12.0
290
     0
  0
SCALE
  5
3EB
102
{ACAD_REACTORS
330
3DF
102
}
330
3DF
100
AcDbScale
 70
     0
300
3/4" = 1'-0"
140
0.75
141
12.0
290
     0
  0
SCALE
  5
3EC
102
{ACAD_REACTORS
330
3DF
102
}
330
3DF
100
AcDbScale
 70
     0
300
1" = 1'-0"
140
1.0
141
12.0
290
     0
  0
SCALE
  5
3ED
102
{ACAD_REACTORS
330
3DF
102
}
330
3DF
100
AcDbScale
 70
     0
300
1-1/2" = 1'-0"
140
1.5
141
12.0
290
     0
  0
SCALE
  5
3EE
102
{ACAD_REACTORS
330
3DF
102
}
330
3DF
100
AcDbScale
 70
     0
300
3" = 1'-0"
140
3.0
141
12.0
290
     0
  0
SCALE
  5
3EF
102
{ACAD_REACTORS
330
3DF
102
}
330
3DF
100
AcDbScale
 70
     0
300
6" = 1'-0"
140
6.0
141
12.0
290
     0
  0
SCALE
  5
3F0
102
{ACAD_REACTORS
330
3DF
102
}
330
3DF
100
AcDbScale
 70
     0
300
1'-0" = 1'-0"
140
12.0
141
12.0
290
     0
  0
ACDBSECTIONVIEWSTYLE
  5
405
102
{ACAD_XDICTIONARY
360
476
102
}
102
{ACAD_REACTORS
330
404
102
}
330
404
100
AcDbModelDocViewStyle
 70
     0
  3
Imperial24
290
     0
100
AcDbSectionViewStyle
 70
     0
 71
     0
 90
       78
 71
     1
340
3F2
 40
0.24
340
0
340
0
 40
0.24
300
I, O, Q, S, X, Z
 40
0.48
 90
        3
 40
0.18
 90
        1
 71
     2
340
3F9
 90
       25
340
3F9
 90
       50
 40
0.24
 40
0.0
 40
0.24
 71
     3
340
3F2
 40
0.24
 90
        1
 40
0.75
 90
        1
300
%<\AcVar ViewType \f "%tc1">% %<\AcVar ViewSectionStartId>%-%<\AcVar ViewSectionEndId>%\PSCALE %<\AcVar ViewScale \f "%sn">%
 71
     4
300
ANSI31
 40
1.0
 90
        0
290
     0
290
     0
 90
        6
 40
0.0
 40
1.570796326794896
 40
0.2617993877991494
 40
1.308996938995747
 40
-0.2617993877991494
 40
1.832595714594046
  0
TABLESTYLE
  5
401
102
{ACAD_XDICTIONARY
360
43D
102
}
102
{ACAD_REACTORS
330
400
102
}
330
400
100
AcDbTableStyle
  3
Standard
 70
     0
 71
     0
 40
0.06
 41
0.06
280
     0
281
     0
  7
STANDARD
140
0.18
170
     2
 62
     0
 63
     7
283
     0
274
    -2
284
     1
 64
     0
275
    -2
285
     1
 65
     0
276
    -2
286
     1
 66
     0
277
    -2
287
     1
 67
     0
278
    -2
288
     1
 68
     0
279
    -2
289
     1
 69
     0
  7
STANDARD
140
0.25
170
     5
 62
     0
 63
     7
283
     0
274
    -2
284
     1
 64
     0
275
    -2
285
     1
 65
     0
276
    -2
286
     1
 66
     0
277
    -2
287
     1
 67
     0
278
    -2
288
     1
 68
     0
279
    -2
289
     1
 69
     0
  7
STANDARD
140
0.18
170
     5
 62
     0
 63
     7
283
     0
274
    -2
284
     1
 64
     0
275
    -2
285
     1
 65
     0
276
    -2
286
     1
 66
     0
277
    -2
287
     1
 67
     0
278
    -2
288
     1
 68
     0
279
    -2
289
     1
 69
     0
  0
VISUALSTYLE
  5
3CC
102
{ACAD_XDICTIONARY
360
44E
102
}
102
{ACAD_REACTORS
330
3C6
102
}
330
3C6
100
AcDbVisualStyle
  2
2dWireframe
 70
     4
 71
     0
 72
     2
 73
     0
 90
        0
 40
-0.6
 41
-30.0
 62
     5
 63
     7
 74
     1
 91
        4
 64
     7
 65
   257
 75
     1
175
     1
 42
1.0
 92
        0
 66
   257
 43
1.0
 76
     1
 77
     6
 78
     2
 67
     7
 79
     5
170
     0
171
     0
290
     0
174
     0
 93
        1
 44
0.0
173
     0
291
     0
 45
0.0
1001
ACAD
1000
AcDbSavedByObjectVersion
1070
     0
  0
VISUALSTYLE
  5
3CB
102
{ACAD_XDICTIONARY
360
44C
102
}
102
{ACAD_REACTORS
330
3C6
102
}
330
3C6
100
AcDbVisualStyle
  2
Basic
 70
     7
 71
     1
 72
     0
 73
     1
 90
        0
 40
-0.6
 41
-30.0
 62
     5
 63
     7
 74
     0
 91
        4
 64
     7
 65
   257
 75
     1
175
     1
 42
1.0
 92
        8
 66
     7
 43
1.0
 76
     1
 77
     6
 78
     2
 67
     7
 79
     5
170
     0
171
     0
290
     0
174
     0
 93
        1
 44
0.0
173
     0
291
     1
 45
0.0
1001
ACAD
1000
AcDbSavedByObjectVersion
1070
     0
  0
VISUALSTYLE
  5
3D2
102
{ACAD_XDICTIONARY
360
45A
102
}
102
{ACAD_REACTORS
330
3C6
102
}
330
3C6
100
AcDbVisualStyle
  2
Brighten
 70
    12
 71
     2
 72
     2
 73
     0
 90
        0
 40
-0.6
 41
-30.0
 62
     5
 63
     7
 74
     1
 91
        4
 64
     7
 65
   257
 75
     1
175
     1
 42
1.0
 92
        8
 66
     7
 43
1.0
 76
     1
 77
     6
 78
     2
 67
     7
 79
     5
170
     0
171
     0
290
     0
174
     0
 93
        1
 44
50.0
173
     0
291
     1
 45
0.0
1001
ACAD
1000
AcDbSavedByObjectVersion
1070
     0
  0
VISUALSTYLE
  5
3D6
102
{ACAD_XDICTIONARY
360
462
102
}
102
{ACAD_REACTORS
330
3C6
102
}
330
3C6
100
AcDbVisualStyle
  2
ColorChange
 70
    16
 71
     2
 72
     2
 73
     3
 90
        0
 40
-0.6
 41
-30.0
 62
     5
 63
     8
 74
     1
 91
        4
 64
     7
 65
   257
 75
     1
175
     1
 42
1.0
 92
        8
 66
     8
 43
1.0
 76
     1
 77
     6
 78
     2
 67
     7
 79
     5
170
     0
171
     0
290
     0
174
     0
 93
        1
 44
0.0
173
     0
291
     1
 45
0.0
1001
ACAD
1000
AcDbSavedByObjectVersion
1070
     0
  0
VISUALSTYLE
  5
3CF
102
{ACAD_XDICTIONARY
360
454
102
}
102
{ACAD_REACTORS
330
3C6
102
}
330
3C6
100
AcDbVisualStyle
  2
Conceptual
 70
     9
 71
     3
 72
     2
 73
     0
 90
        0
 40
-0.6
 41
-30.0
 62
     5
 63
     7
 74
     2
 91
        2
 64
     7
 65
   257
 75
     1
175
     1
 42
179.0
 92
        8
 66
     7
 43
1.0
 76
     1
 77
     6
 78
     2
 67
     7
 79
     3
170
     0
171
     0
290
     0
174
     0
 93
        1
 44
0.0
173
     0
291
     0
 45
0.0
1001
ACAD
1000
AcDbSavedByObjectVersion
1070
     0
  0
VISUALSTYLE
  5
3D1
102
{ACAD_XDICTIONARY
360
458
102
}
102
{ACAD_REACTORS
330
3C6
102
}
330
3C6
100
AcDbVisualStyle
  2
Dim
 70
    11
 71
     2
 72
     2
 73
     0
 90
        0
 40
-0.6
 41
-30.0
 62
     5
 63
     7
 74
     1
 91
        4
 64
     7
 65
   257
 75
     1
175
     1
 42
1.0
 92
        8
 66
     7
 43
1.0
 76
     1
 77
     6
 78
     2
 67
     7
 79
     5
170
     0
171
     0
290
     0
174
     0
 93
        1
 44
-50.0
173
     0
291
     1
 45
0.0
1001
ACAD
1000
AcDbSavedByObjectVersion
1070
     0
  0
VISUALSTYLE
  5
3DE
102
{ACAD_XDICTIONARY
360
472
102
}
102
{ACAD_REACTORS
330
3C6
102
}
330
3C6
100
AcDbVisualStyle
  2
EdgeColorOff
 70
    22
 71
     2
 72
     2
 73
     0
 90
        0
 40
-0.6
 41
-30.0
 62
     5
 63
     7
 74
     1
 91
        4
 64
     7
 65
   257
 75
     1
175
     1
 42
1.0
 92
        8
 66
     7
 43
1.0
 76
     1
 77
     6
 78
     2
 67
     7
 79
     5
170
     0
171
     0
290
     0
174
     0
 93
        1
 44
0.0
173
     0
291
     1
 45
0.0
1001
ACAD
1000
AcDbSavedByObjectVersion
1070
     0
  0
VISUALSTYLE
  5
3D5
102
{ACAD_XDICTIONARY
360
460
102
}
102
{ACAD_REACTORS
330
3C6
102
}
330
3C6
100
AcDbVisualStyle
  2
Facepattern
 70
    15
 71
     2
 72
     2
 73
     0
 90
        0
 40
-0.6
 41
-30.0
 62
     5
 63
     7
 74
     1
 91
        4
 64
     7
 65
   257
 75
     1
175
     1
 42
1.0
 92
        8
 66
     7
 43
1.0
 76
     1
 77
     6
 78
     2
 67
     7
 79
     5
170
     0
171
     0
290
     0
174
     0
 93
        1
 44
0.0
173
     0
291
     1
 45
0.0
1001
ACAD
1000
AcDbSavedByObjectVersion
1070
     0
  0
VISUALSTYLE
  5
3C7
102
{ACAD_XDICTIONARY
360
444
102
}
102
{ACAD_REACTORS
330
3C6
102
}
330
3C6
100
AcDbVisualStyle
  2
Flat
 70
     0
 71
     2
 72
     1
 73
     1
 90
        2
 40
-0.6
 41
30.0
 62
     5
 63
     7
 74
     0
 91
        0
 64
     7
 65
   257
 75
     1
175
     1
 42
1.0
 92
        8
 66
     7
 43
1.0
 76
     1
 77
     6
 78
     2
 67
     7
 79
     5
170
     0
171
     0
290
     0
174
     0
 93
       13
 44
0.0
173
     0
291
     1
 45
0.0
1001
ACAD
1000
AcDbSavedByObjectVersion
1070
     0
  0
VISUALSTYLE
  5
3C8
102
{ACAD_XDICTIONARY
360
446
102
}
102
{ACAD_REACTORS
330
3C6
102
}
330
3C6
100
AcDbVisualStyle
  2
FlatWithEdges
 70
     1
 71
     2
 72
     1
 73
     1
 90
        2
 40
-0.6
 41
30.0
 62
     5
 63
     7
 74
     1
 91
        0
 64
     7
 65
   257
 75
     1
175
     1
 42
1.0
 92
        0
 66
   257
 43
1.0
 76
     1
 77
     6
 78
     2
 67
     7
 79
     5
170
     0
171
     0
290
     0
174
     0
 93
       13
 44
0.0
173
     0
291
     1
 45
0.0
1001
ACAD
1000
AcDbSavedByObjectVersion
1070
     0
  0
VISUALSTYLE
  5
3C9
102
{ACAD_XDICTIONARY
360
448
102
}
102
{ACAD_REACTORS
330
3C6
102
}
330
3C6
100
AcDbVisualStyle
  2
Gouraud
 70
     2
 71
     2
 72
     2
 73
     1
 90
        2
 40
-0.6
 41
30.0
 62
     5
 63
     7
 74
     0
 91
        0
 64
     7
 65
   257
 75
     1
175
     1
 42
1.0
 92
        0
 66
     7
 43
1.0
 76
     1
 77
     6
 78
     2
 67
     7
 79
     5
170
     0
171
     0
290
     0
174
     0
 93
       13
 44
0.0
173
     0
291
     1
 45
0.0
1001
ACAD
1000
AcDbSavedByObjectVersion
1070
     0
  0
VISUALSTYLE
  5
3CA
102
{ACAD_XDICTIONARY
360
44A
102
}
102
{ACAD_REACTORS
330
3C6
102
}
330
3C6
100
AcDbVisualStyle
  2
GouraudWithEdges
 70
     3
 71
     2
 72
     2
 73
     1
 90
        2
 40
-0.6
 41
30.0
 62
     5
 63
     7
 74
     1
 91
        0
 64
     7
 65
   257
 75
     1
175
     1
 42
1.0
 92
        0
 66
   257
 43
1.0
 76
     1
 77
     6
 78
     2
 67
     7
 79
     5
170
     0
171
     0
290
     0
174
     0
 93
       13
 44
0.0
173
     0
291
     1
 45
0.0
1001
ACAD
1000
AcDbSavedByObjectVersion
1070
     0
  0
VISUALSTYLE
  5
3CE
102
{ACAD_XDICTIONARY
360
452
102
}
102
{ACAD_REACTORS
330
3C6
102
}
330
3C6
100
AcDbVisualStyle
  2
Hidden
 70
     6
 71
     1
 72
     2
 73
     2
 90
        0
 40
-0.6
 41
-30.0
 62
     5
 63
     7
 74
     2
 91
        2
 64
     7
 65
   257
 75
     2
175
     1
 42
40.0
 92
        0
 66
   257
 43
1.0
 76
     1
 77
     6
 78
     2
 67
     7
 79
     3
170
     0
171
     0
290
     0
174
     0
 93
        1
 44
0.0
173
     0
291
     0
 45
0.0
1001
ACAD
1000
AcDbSavedByObjectVersion
1070
     0
  0
VISUALSTYLE
  5
3DC
102
{ACAD_XDICTIONARY
360
46E
102
}
102
{ACAD_REACTORS
330
3C6
102
}
330
3C6
100
AcDbVisualStyle
  2
JitterOff
 70
    20
 71
     2
 72
     2
 73
     0
 90
        0
 40
-0.6
 41
-30.0
 62
     5
 63
     7
 74
     1
 91
        4
 64
     7
 65
   257
 75
     1
175
     1
 42
1.0
 92
       10
 66
     7
 43
1.0
 76
     1
 77
     6
 78
     2
 67
     7
 79
     5
170
     0
171
     0
290
     0
174
     0
 93
        1
 44
0.0
173
     0
291
     1
 45
0.0
1001
ACAD
1000
AcDbSavedByObjectVersion
1070
     0
  0
VISUALSTYLE
  5
3D4
102
{ACAD_XDICTIONARY
360
45E
102
}
102
{ACAD_REACTORS
330
3C6
102
}
330
3C6
100
AcDbVisualStyle
  2
Linepattern
 70
    14
 71
     2
 72
     2
 73
     0
 90
        0
 40
-0.6
 41
-30.0
 62
     5
 63
     7
 74
     1
 91
        4
 64
     7
 65
   257
 75
     7
175
     7
 42
1.0
 92
        8
 66
     7
 43
1.0
 76
     1
 77
     6
 78
     2
 67
     7
 79
     5
170
     0
171
     0
290
     0
174
     0
 93
        1
 44
0.0
173
     0
291
     1
 45
0.0
1001
ACAD
1000
AcDbSavedByObjectVersion
1070
     0
  0
VISUALSTYLE
  5
3DD
102
{ACAD_XDICTIONARY
360
470
102
}
102
{ACAD_REACTORS
330
3C6
102
}
330
3C6
100
AcDbVisualStyle
  2
OverhangOff
 70
    21
 71
     2
 72
     2
 73
     0
 90
        0
 40
-0.6
 41
-30.0
 62
     5
 63
     7
 74
     1
 91
        4
 64
     7
 65
   257
 75
     1
175
     1
 42
1.0
 92
        9
 66
     7
 43
1.0
 76
     1
 77
     6
 78
     2
 67
     7
 79
     5
170
     0
171
     0
290
     0
174
     0
 93
        1
 44
0.0
173
     0
291
     1
 45
0.0
1001
ACAD
1000
AcDbSavedByObjectVersion
1070
     0
  0
VISUALSTYLE
  5
3D0
102
{ACAD_XDICTIONARY
360
456
102
}
102
{ACAD_REACTORS
330
3C6
102
}
330
3C6
100
AcDbVisualStyle
  2
Realistic
 70
     8
 71
     2
 72
     3
 73
     0
 90
        2
 40
-0.6
 41
30.0
 62
     5
 63
     7
 74
     0
 91
        0
 64
     7
 65
   257
 75
     1
175
     1
 42
1.0
 92
        8
 66
   257
 43
1.0
 76
     1
 77
     6
 78
     2
 67
     7
 79
     3
170
     0
171
     0
290
     0
174
     0
 93
       13
 44
0.0
173
     0
291
     0
 45
0.0
1001
ACAD
1000
AcDbSavedByObjectVersion
1070
     0
  0
VISUALSTYLE
  5
3DB
102
{ACAD_XDICTIONARY
360
46C
102
}
102
{ACAD_REACTORS
330
3C6
102
}
330
3C6
100
AcDbVisualStyle
  2
Shaded
 70
    27
 71
     2
 72
     2
 73
     1
 90
        2
 40
-0.6
 41
30.0
 62
     5
 63
     7
 74
     0
 91
        4
 64
     7
 65
   257
 75
     1
175
     1
 42
1.0
 92
        8
 66
   257
 43
1.0
 76
     1
 77
     6
 78
     2
 67
     8
 79
     3
170
     0
171
     0
290
     0
174
     0
 93
        5
 44
0.0
173
     0
291
     0
 45
0.0
1001
ACAD
1000
AcDbSavedByObjectVersion
1070
     0
  0
VISUALSTYLE
  5
3DA
102
{ACAD_XDICTIONARY
360
46A
102
}
102
{ACAD_REACTORS
330
3C6
102
}
330
3C6
100
AcDbVisualStyle
  2
Shaded with edges
 70
    26
 71
     2
 72
     2
 73
     1
 90
        2
 40
-0.6
 41
30.0
 62
     5
 63
     7
 74
     1
 91
        2
 64
     7
 65
   257
 75
     2
175
     1
 42
1.0
 92
        8
 66
   257
 43
1.0
 76
     1
 77
     6
 78
     2
 67
     7
 79
     3
170
     0
171
     0
290
     0
174
     0
 93
        5
 44
0.0
173
     0
291
     0
 45
0.0
1001
ACAD
1000
AcDbSavedByObjectVersion
1070
     0
  0
VISUALSTYLE
  5
3D7
102
{ACAD_XDICTIONARY
360
464
102
}
102
{ACAD_REACTORS
330
3C6
102
}
330
3C6
100
AcDbVisualStyle
  2
Shades of Gray
 70
    23
 71
     2
 72
     2
 73
     3
 90
        0
 40
-0.6
 41
-30.0
 62
     5
 63
     7
 74
     2
 91
        2
 64
     7
 65
     7
 75
     1
175
     1
 42
40.0
 92
        8
 66
     7
 43
1.0
 76
     1
 77
     6
 78
     2
 67
     7
 79
     3
170
     0
171
     0
290
     0
174
     0
 93
        1
 44
0.0
173
     0
291
     0
 45
0.0
1001
ACAD
1000
AcDbSavedByObjectVersion
1070
     0
  0
VISUALSTYLE
  5
3D8
102
{ACAD_XDICTIONARY
360
466
102
}
102
{ACAD_REACTORS
330
3C6
102
}
330
3C6
100
AcDbVisualStyle
  2
Sketchy
 70
    24
 71
     1
 72
     2
 73
     2
 90
        0
 40
-0.6
 41
-30.0
 62
     5
 63
     7
 74
     2
 91
        2
 64
     7
 65
     7
 75
     1
175
     1
 42
40.0
 92
       11
 66
     7
 43
1.0
 76
     1
 77
     6
 78
     2
 67
     7
 79
     6
170
     0
171
     0
290
     0
174
     0
 93
        1
 44
0.0
173
     0
291
     0
 45
0.0
1001
ACAD
1000
AcDbSavedByObjectVersion
1070
     0
  0
VISUALSTYLE
  5
3D3
102
{ACAD_XDICTIONARY
360
45C
102
}
102
{ACAD_REACTORS
330
3C6
102
}
330
3C6
100
AcDbVisualStyle
  2
Thicken
 70
    13
 71
     2
 72
     2
 73
     0
 90
        0
 40
-0.6
 41
-30.0
 62
     5
 63
     7
 74
     1
 91
        4
 64
     7
 65
   257
 75
     1
175
     1
 42
1.0
 92
       12
 66
     7
 43
1.0
 76
     1
 77
     6
 78
     2
 67
     7
 79
     5
170
     0
171
     0
290
     0
174
     0
 93
        1
 44
0.0
173
     0
291
     1
 45
0.0
1001
ACAD
1000
AcDbSavedByObjectVersion
1070
     0
  0
VISUALSTYLE
  5
3CD
102
{ACAD_XDICTIONARY
360
450
102
}
102
{ACAD_REACTORS
330
3C6
102
}
330
3C6
100
AcDbVisualStyle
  2
Wireframe
 70
     5
 71
     0
 72
     2
 73
     0
 90
        0
 40
-0.6
 41
-30.0
 62
     5
 63
     7
 74
     1
 91
        4
 64
     7
 65
   257
 75
     1
175
     1
 42
1.0
 92
        0
 66
   257
 43
1.0
 76
     1
 77
     6
 78
     2
 67
     7
 79
     3
170
     0
171
     0
290
     0
174
     0
 93
        1
 44
0.0
173
     0
291
     0
 45
0.0
1001
ACAD
1000
AcDbSavedByObjectVersion
1070
     0
  0
VISUALSTYLE
  5
3D9
102
{ACAD_XDICTIONARY
360
468
102
}
102
{ACAD_REACTORS
330
3C6
102
}
330
3C6
100
AcDbVisualStyle
  2
X-Ray
 70
    25
 71
     2
 72
     2
 73
     1
 90
        1
 40
0.5
 41
-30.0
 62
     5
 63
     7
 74
     1
 91
        0
 64
     7
 65
   257
 75
     1
175
     1
 42
1.0
 92
        8
 66
     7
 43
1.0
 76
     1
 77
     6
 78
     2
 67
     7
 79
     3
170
     0
171
     0
290
     0
174
     0
 93
       13
 44
0.0
173
     0
291
     0
 45
0.0
1001
ACAD
1000
AcDbSavedByObjectVersion
1070
     0
  0
DICTIONARYVAR
  5
437
102
{ACAD_REACTORS
330
432
102
}
330
432
100
DictionaryVariables
280
     0
  1
1:1
  0
DICTIONARYVAR
  5
434
102
{ACAD_REACTORS
330
432
102
}
330
432
100
DictionaryVariables
280
     0
  1
STANDARD
  0
DICTIONARYVAR
  5
433
102
{ACAD_REACTORS
330
432
102
}
330
432
100
DictionaryVariables
280
     0
  1
STANDARD
  0
DICTIONARYVAR
  5
435
102
{ACAD_REACTORS
330
432
102
}
330
432
100
DictionaryVariables
280
     0
  1
Imperial24
  0
DICTIONARYVAR
  5
436
102
{ACAD_REACTORS
330
432
102
}
330
432
100
DictionaryVariables
280
     0
  1
Imperial24
  0
DICTIONARYVAR
  5
43A
102
{ACAD_REACTORS
330
432
102
}
330
432
100
DictionaryVariables
280
     0
  1
1
  0
DICTIONARYVAR
  5
439
102
{ACAD_REACTORS
330
432
102
}
330
432
100
DictionaryVariables
280
     0
  1
0
  0
DICTIONARYVAR
  5
438
102
{ACAD_REACTORS
330
432
102
}
330
432
100
DictionaryVariables
280
     0
  1
127
  0
DICTIONARYVAR
  5
43B
102
{ACAD_REACTORS
330
432
102
}
330
432
100
DictionaryVariables
280
     0
  1
2
  0
DICTIONARY
  5
478
330
407
100
AcDbDictionary
280
     1
281
     1
  3
ACAD_XREC_ROUNDTRIP
360
479
  0
DICTIONARY
  5
47C
330
40F
100
AcDbDictionary
280
     1
281
     1
  3
ACAD_XREC_ROUNDTRIP
360
47D
  0
DICTIONARY
  5
47A
330
40B
100
AcDbDictionary
280
     1
281
     1
  3
ACAD_XREC_ROUNDTRIP
360
47B
  0
DICTIONARY
  5
3B7
330
3B6
100
AcDbDictionary
280
     1
281
     1
  3
ACAD_XREC_ROUNDTRIP
360
442
  3
BUMPTILE
360
3B9
  3
DIFFUSETILE
360
3B8
  3
OPACITYTILE
360
3BC
  3
REFLECTIONTILE
360
3BB
  3
REFRACTIONTILE
360
3BD
  3
SPECULARTILE
360
3BA
  0
DICTIONARY
  5
3AF
330
3AE
100
AcDbDictionary
280
     1
281
     1
  3
ACAD_XREC_ROUNDTRIP
360
441
  3
BUMPTILE
360
3B1
  3
DIFFUSETILE
360
3B0
  3
OPACITYTILE
360
3B4
  3
REFLECTIONTILE
360
3B3
  3
REFRACTIONTILE
360
3B5
  3
SPECULARTILE
360
3B2
  0
DICTIONARY
  5
3BF
330
3BE
100
AcDbDictionary
280
     1
281
     1
  3
ACAD_XREC_ROUNDTRIP
360
443
  3
BUMPTILE
360
3C1
  3
DIFFUSETILE
360
3C0
  3
OPACITYTILE
360
3C4
  3
REFLECTIONTILE
360
3C3
  3
REFRACTIONTILE
360
3C5
  3
SPECULARTILE
360
3C2
  0
DICTIONARY
  5
476
330
405
100
AcDbDictionary
280
     1
281
     1
  3
ACAD_XREC_ROUNDTRIP
360
477
  0
DICTIONARY
  5
43D
330
401
100
AcDbDictionary
280
     1
281
     1
  3
ACAD_ROUNDTRIP_2008_TABLESTYLE_CELLSTYLEMAP
360
43E
  3
ACAD_XREC_ROUNDTRIP
360
474
  0
DICTIONARY
  5
44E
330
3CC
100
AcDbDictionary
280
     1
281
     1
  3
ACAD_XREC_ROUNDTRIP
360
44F
  0
DICTIONARY
  5
44C
330
3CB
100
AcDbDictionary
280
     1
281
     1
  3
ACAD_XREC_ROUNDTRIP
360
44D
  0
DICTIONARY
  5
45A
330
3D2
100
AcDbDictionary
280
     1
281
     1
  3
ACAD_XREC_ROUNDTRIP
360
45B
  0
DICTIONARY
  5
462
330
3D6
100
AcDbDictionary
280
     1
281
     1
  3
ACAD_XREC_ROUNDTRIP
360
463
  0
DICTIONARY
  5
454
330
3CF
100
AcDbDictionary
280
     1
281
     1
  3
ACAD_XREC_ROUNDTRIP
360
455
  0
DICTIONARY
  5
458
330
3D1
100
AcDbDictionary
280
     1
281
     1
  3
ACAD_XREC_ROUNDTRIP
360
459
  0
DICTIONARY
  5
472
330
3DE
100
AcDbDictionary
280
     1
281
     1
  3
ACAD_XREC_ROUNDTRIP
360
473
  0
DICTIONARY
  5
460
330
3D5
100
AcDbDictionary
280
     1
281
     1
  3
ACAD_XREC_ROUNDTRIP
360
461
  0
DICTIONARY
  5
444
330
3C7
100
AcDbDictionary
280
     1
281
     1
  3
ACAD_XREC_ROUNDTRIP
360
445
  0
DICTIONARY
  5
446
330
3C8
100
AcDbDictionary
280
     1
281
     1
  3
ACAD_XREC_ROUNDTRIP
360
447
  0
DICTIONARY
  5
448
330
3C9
100
AcDbDictionary
280
     1
281
     1
  3
ACAD_XREC_ROUNDTRIP
360
449
  0
DICTIONARY
  5
44A
330
3CA
100
AcDbDictionary
280
     1
281
     1
  3
ACAD_XREC_ROUNDTRIP
360
44B
  0
DICTIONARY
  5
452
330
3CE
100
AcDbDictionary
280
     1
281
     1
  3
ACAD_XREC_ROUNDTRIP
360
453
  0
DICTIONARY
  5
46E
330
3DC
100
AcDbDictionary
280
     1
281
     1
  3
ACAD_XREC_ROUNDTRIP
360
46F
  0
DICTIONARY
  5
45E
330
3D4
100
AcDbDictionary
280
     1
281
     1
  3
ACAD_XREC_ROUNDTRIP
360
45F
  0
DICTIONARY
  5
470
330
3DD
100
AcDbDictionary
280
     1
281
     1
  3
ACAD_XREC_ROUNDTRIP
360
471
  0
DICTIONARY
  5
456
330
3D0
100
AcDbDictionary
280
     1
281
     1
  3
ACAD_XREC_ROUNDTRIP
360
457
  0
DICTIONARY
  5
46C
330
3DB
100
AcDbDictionary
280
     1
281
     1
  3
ACAD_XREC_ROUNDTRIP
360
46D
  0
DICTIONARY
  5
46A
330
3DA
100
AcDbDictionary
280
     1
281
     1
  3
ACAD_XREC_ROUNDTRIP
360
46B
  0
DICTIONARY
  5
464
330
3D7
100
AcDbDictionary
280
     1
281
     1
  3
ACAD_XREC_ROUNDTRIP
360
465
  0
DICTIONARY
  5
466
330
3D8
100
AcDbDictionary
280
     1
281
     1
  3
ACAD_XREC_ROUNDTRIP
360
467
  0
DICTIONARY
  5
45C
330
3D3
100
AcDbDictionary
280
     1
281
     1
  3
ACAD_XREC_ROUNDTRIP
360
45D
  0
DICTIONARY
  5
450
330
3CD
100
AcDbDictionary
280
     1
281
     1
  3
ACAD_XREC_ROUNDTRIP
360
451
  0
DICTIONARY
  5
468
330
3D9
100
AcDbDictionary
280
     1
281
     1
  3
ACAD_XREC_ROUNDTRIP
360
469
  0
XRECORD
  5
479
102
{ACAD_REACTORS
330
478
102
}
330
478
100
AcDbXrecord
280
     1
102
DISPLAYNAME
  1
Imperial24
102
FLAGS
 90
        0
  0
XRECORD
  5
47D
102
{ACAD_REACTORS
330
47C
102
}
330
47C
100
AcDbXrecord
280
     1
102
SHADEPLOT
 70
     0
102
SHADEPLOTRESLEVEL
 70
     2
102
SHADEPLOTCUSTOMDPI
 70
   300
  0
XRECORD
  5
47B
102
{ACAD_REACTORS
330
47A
102
}
330
47A
100
AcDbXrecord
280
     1
102
SHADEPLOT
 70
     0
102
SHADEPLOTRESLEVEL
 70
     2
102
SHADEPLOTCUSTOMDPI
 70
   300
  0
XRECORD
  5
442
102
{ACAD_REACTORS
330
3B7
102
}
330
3B7
100
AcDbXrecord
280
     1
102
MATERIAL
148
0.0
149
0.0
149
0.0
 93
        0
 94
      127
282
     0
 72
     0
 77
     0
171
     0
175
     0
179
     0
273
     0
  0
XRECORD
  5
3B9
102
{ACAD_REACTORS
330
3B7
102
}
330
3B7
100
AcDbXrecord
280
     1
270
     1
271
     1
  0
XRECORD
  5
3B8
102
{ACAD_REACTORS
330
3B7
102
}
330
3B7
100
AcDbXrecord
280
     1
270
     1
271
     1
  0
XRECORD
  5
3BC
102
{ACAD_REACTORS
330
3B7
102
}
330
3B7
100
AcDbXrecord
280
     1
270
     1
271
     1
  0
XRECORD
  5
3BB
102
{ACAD_REACTORS
330
3B7
102
}
330
3B7
100
AcDbXrecord
280
     1
270
     1
271
     1
  0
XRECORD
  5
3BD
102
{ACAD_REACTORS
330
3B7
102
}
330
3B7
100
AcDbXrecord
280
     1
270
     1
271
     1
  0
XRECORD
  5
3BA
102
{ACAD_REACTORS
330
3B7
102
}
330
3B7
100
AcDbXrecord
280
     1
270
     1
271
     1
  0
XRECORD
  5
441
102
{ACAD_REACTORS
330
3AF
102
}
330
3AF
100
AcDbXrecord
280
     1
102
MATERIAL
148
0.0
149
0.0
149
0.0
 93
        0
 94
      127
282
     0
 72
     0
 77
     0
171
     0
175
     0
179
     0
273
     0
  0
XRECORD
  5
3B1
102
{ACAD_REACTORS
330
3AF
102
}
330
3AF
100
AcDbXrecord
280
     1
270
     1
271
     1
  0
XRECORD
  5
3B0
102
{ACAD_REACTORS
330
3AF
102
}
330
3AF
100
AcDbXrecord
280
     1
270
     1
271
     1
  0
XRECORD
  5
3B4
102
{ACAD_REACTORS
330
3AF
102
}
330
3AF
100
AcDbXrecord
280
     1
270
     1
271
     1
  0
XRECORD
  5
3B3
102
{ACAD_REACTORS
330
3AF
102
}
330
3AF
100
AcDbXrecord
280
     1
270
     1
271
     1
  0
XRECORD
  5
3B5
102
{ACAD_REACTORS
330
3AF
102
}
330
3AF
100
AcDbXrecord
280
     1
270
     1
271
     1
  0
XRECORD
  5
3B2
102
{ACAD_REACTORS
330
3AF
102
}
330
3AF
100
AcDbXrecord
280
     1
270
     1
271
     1
  0
XRECORD
  5
443
102
{ACAD_REACTORS
330
3BF
102
}
330
3BF
100
AcDbXrecord
280
     1
102
MATERIAL
148
0.0
149
0.0
149
0.0
 93
        0
 94
      127
282
     0
 72
     0
 77
     0
171
     0
175
     0
179
     0
273
     0
  0
XRECORD
  5
3C1
102
{ACAD_REACTORS
330
3BF
102
}
330
3BF
100
AcDbXrecord
280
     1
270
     1
271
     1
  0
XRECORD
  5
3C0
102
{ACAD_REACTORS
330
3BF
102
}
330
3BF
100
AcDbXrecord
280
     1
270
     1
271
     1
  0
XRECORD
  5
3C4
102
{ACAD_REACTORS
330
3BF
102
}
330
3BF
100
AcDbXrecord
280
     1
270
     1
271
     1
  0
XRECORD
  5
3C3
102
{ACAD_REACTORS
330
3BF
102
}
330
3BF
100
AcDbXrecord
280
     1
270
     1
271
     1
  0
XRECORD
  5
3C5
102
{ACAD_REACTORS
330
3BF
102
}
330
3BF
100
AcDbXrecord
280
     1
270
     1
271
     1
  0
XRECORD
  5
3C2
102
{ACAD_REACTORS
330
3BF
102
}
330
3BF
100
AcDbXrecord
280
     1
270
     1
271
     1
  0
XRECORD
  5
477
102
{ACAD_REACTORS
330
476
102
}
330
476
100
AcDbXrecord
280
     1
102
DISPLAYNAME
  1
Imperial24
102
FLAGS
 90
        0
  0
CELLSTYLEMAP
  5
43E
102
{ACAD_REACTORS
330
43D
102
}
330
43D
100
AcDbCellStyleMap
 90
        3
300
CELLSTYLE
  1
TABLEFORMAT_BEGIN
 90
        5
170
     1
 91
        0
 92
    32768
 62
   257
 93
        1
300
CONTENTFORMAT
  1
CONTENTFORMAT_BEGIN
 90
        0
 91
        0
 92
      512
 93
        0
300

 40
0.0
140
1.0
 94
        5
 62
     0
340
3F2
144
0.25
309
CONTENTFORMAT_END
171
     0
 94
        0
309
TABLEFORMAT_END
  1
CELLSTYLE_BEGIN
 90
        1
 91
        1
300
_TITLE
309
CELLSTYLE_END
300
CELLSTYLE
  1
TABLEFORMAT_BEGIN
 90
        5
170
     1
 91
        0
 92
        0
 62
   257
 93
        1
300
CONTENTFORMAT
  1
CONTENTFORMAT_BEGIN
 90
        0
 91
        0
 92
      512
 93
        0
300

 40
0.0
140
1.0
 94
        5
 62
     0
340
3F2
144
0.18
309
CONTENTFORMAT_END
171
     0
 94
        0
309
TABLEFORMAT_END
  1
CELLSTYLE_BEGIN
 90
        2
 91
        1
300
_HEADER
309
CELLSTYLE_END
300
CELLSTYLE
  1
TABLEFORMAT_BEGIN
 90
        5
170
     1
 91
        0
 92
        0
 62
   257
 93
        1
300
CONTENTFORMAT
  1
CONTENTFORMAT_BEGIN
 90
        0
 91
        0
 92
      512
 93
        0
300

 40
0.0
140
1.0
 94
        2
 62
     0
340
3F2
144
0.18
309
CONTENTFORMAT_END
171
     0
 94
        0
309
TABLEFORMAT_END
  1
CELLSTYLE_BEGIN
 90
        3
 91
        2
300
_DATA
309
CELLSTYLE_END
  0
XRECORD
  5
474
102
{ACAD_REACTORS
330
43D
102
}
330
43D
100
AcDbXrecord
280
     1
102
ACAD_ROUNDTRIP_PRE2007_TABLESTYLE
 90
      512
 91
        0
  1

 92
      512
 93
        0
  2

 94
      512
 95
        0
  3

  0
XRECORD
  5
44F
102
{ACAD_REACTORS
330
44E
102
}
330
44E
100
AcDbXrecord
280
     1
102
RTVSPost2010Prop28
280
     1
102
RTVSPost2010PropOp28
 70
     1
102
RTVSPost2010Prop29
280
     1
102
RTVSPost2010PropOp29
 70
     1
102
RTVSPost2010Prop30
280
     0
102
RTVSPost2010PropOp30
 70
     1
102
RTVSPost2010Prop31
280
     0
102
RTVSPost2010PropOp31
 70
     1
102
RTVSPost2010Prop32
280
     0
102
RTVSPost2010PropOp32
 70
     1
102
RTVSPost2010Prop33
280
     0
102
RTVSPost2010PropOp33
 70
     1
102
RTVSPost2010Prop34
280
     0
102
RTVSPost2010PropOp34
 70
     1
102
RTVSPost2010Prop35
280
     0
102
RTVSPost2010PropOp35
 70
     1
102
RTVSPost2010Prop36
280
     0
102
RTVSPost2010PropOp36
 70
     1
102
RTVSPost2010Prop37
 90
       50
102
RTVSPost2010PropOp37
 70
     1
102
RTVSPost2010Prop38
140
0.0
102
RTVSPost2010PropOp38
 70
     1
102
RTVSPost2010Prop39
140
1.0
102
RTVSPost2010PropOp39
 70
     1
102
RTVSPost2010Prop40
 90
        0
102
RTVSPost2010PropOp40
 70
     1
102
RTVSPost2010Prop41ColorIndex
 90
       18
102
RTVSPost2010Prop41ColorRGB
 90
        0
102
RTVSPost2010PropOp41
 70
     1
102
RTVSPost2010Prop42
 90
       50
102
RTVSPost2010PropOp42
 70
     1
102
RTVSPost2010Prop43
 90
        3
102
RTVSPost2010PropOp43
 70
     1
102
RTVSPost2010Prop44ColorIndex
 90
        5
102
RTVSPost2010Prop44ColorRGB
 90
      255
102
RTVSPost2010PropOp44
 70
     1
102
RTVSPost2010Prop45
280
     0
102
RTVSPost2010PropOp45
 70
     1
102
RTVSPost2010Prop46
 90
       50
102
RTVSPost2010PropOp46
 70
     1
102
RTVSPost2010Prop47
 90
       50
102
RTVSPost2010PropOp47
 70
     1
102
RTVSPost2010Prop48
 90
       50
102
RTVSPost2010PropOp48
 70
     1
102
RTVSPost2010Prop49
280
     0
102
RTVSPost2010PropOp49
 70
     1
102
RTVSPost2010Prop50
 90
       50
102
RTVSPost2010PropOp50
 70
     1
102
RTVSPost2010Prop51ColorIndex
 90
      256
102
RTVSPost2010Prop51ColorRGB
 90
-16777216
102
RTVSPost2010PropOp51
 70
     0
102
RTVSPost2010Prop52
140
1.0
102
RTVSPost2010PropOp52
 70
     0
102
RTVSPost2010Prop53
 90
        2
102
RTVSPost2010PropOp53
 70
     1
102
RTVSPost2010Prop54
  1
strokes_ogs.tif
102
RTVSPost2010PropOp54
 70
     1
102
RTVSPost2010Prop55
280
     0
102
RTVSPost2010PropOp55
 70
     1
102
RTVSPost2010Prop56
140
1.0
102
RTVSPost2010PropOp56
 70
     1
102
RTVSPost2010Prop57
140
1.0
102
RTVSPost2010PropOp57
 70
     1
102
RTVSPropertyOp0
 70
     1
102
RTVSPropertyOp1
 70
     1
102
RTVSPropertyOp2
 70
     1
102
RTVSPropertyOp3
 70
     1
102
RTVSPropertyOp4
 70
     1
102
RTVSPropertyOp5
 70
     1
102
RTVSPropertyOp6
 70
     1
102
RTVSPropertyOp7
 70
     1
102
RTVSPropertyOp8
 70
     1
102
RTVSPropertyOp9
 70
     1
102
RTVSPropertyOp10
 70
     1
102
RTVSPropertyOp11
 70
     1
102
RTVSPropertyOp12
 70
     1
102
RTVSPropertyOp13
 70
     1
102
RTVSPropertyOp14
 70
     1
102
RTVSPropertyOp15
 70
     1
102
RTVSPropertyOp16
 70
     1
102
RTVSPropertyOp17
 70
     1
102
RTVSPropertyOp18
 70
     1
102
RTVSPropertyOp19
 70
     1
102
RTVSPropertyOp20
 70
     1
102
RTVSPropertyOp21
 70
     1
102
RTVSPropertyOp22
 70
     1
102
RTVSPropertyOp23
 70
     1
102
RTVSPropertyOp24
 70
     1
102
RTVSPropertyOp25
 70
     1
102
RTVSPropertyOp26
 70
     1
102
RTVSPropertyOp27
 70
     1
102
RTVSPropertyOp28
 70
     1
102
RTVSPropertyOp29
 70
     1
102
RTVSPropertyOp30
 70
     1
102
RTVSPropertyOp31
 70
     1
102
RTVSPropertyOp32
 70
     1
102
RTVSPropertyOp33
 70
     1
102
RTVSPropertyOp34
 70
     1
102
RTVSPropertyOp35
 70
     1
102
RTVSPropertyOp36
 70
     1
102
RTVSPropertyOp37
 70
     1
102
RTVSPropertyOp38
 70
     1
102
RTVSPropertyOp39
 70
     1
102
RTVSPropertyOp40
 70
     1
102
RTVSPropertyOp41
 70
     1
102
RTVSPropertyOp42
 70
     1
102
RTVSPropertyOp43
 70
     1
102
RTVSPropertyOp44
 70
     1
102
RTVSPropertyOp45
 70
     1
102
RTVSPropertyOp46
 70
     1
102
RTVSPropertyOp47
 70
     1
102
RTVSPropertyOp48
 70
     1
102
RTVSPropertyOp49
 70
     1
102
RTVSPropertyOp50
 70
     1
102
RTVSPropertyOp51
 70
     0
102
RTVSPropertyOp52
 70
     0
102
RTVSPropertyOp53
 70
     1
102
RTVSPropertyOp54
 70
     1
102
RTVSPropertyOp55
 70
     1
102
RTVSPropertyOp56
 70
     1
102
RTVSPropertyOp57
 70
     1
102
RTVSPropertyOp58
 70
     1
102
RTVSPropertyOp59
 70
     1
102
RTVSPropertyOp60
 70
     1
102
RTVSPropertyOp61
 70
     1
102
RTVSPropertyOp62
 70
     1
  0
XRECORD
  5
44D
102
{ACAD_REACTORS
330
44C
102
}
330
44C
100
AcDbXrecord
280
     1
102
RTVSPost2010Prop28
280
     0
102
RTVSPost2010PropOp28
 70
     1
102
RTVSPost2010Prop29
280
     1
102
RTVSPost2010PropOp29
 70
     1
102
RTVSPost2010Prop30
280
     1
102
RTVSPost2010PropOp30
 70
     1
102
RTVSPost2010Prop31
280
     0
102
RTVSPost2010PropOp31
 70
     1
102
RTVSPost2010Prop32
280
     0
102
RTVSPost2010PropOp32
 70
     1
102
RTVSPost2010Prop33
280
     0
102
RTVSPost2010PropOp33
 70
     1
102
RTVSPost2010Prop34
280
     0
102
RTVSPost2010PropOp34
 70
     1
102
RTVSPost2010Prop35
280
     0
102
RTVSPost2010PropOp35
 70
     1
102
RTVSPost2010Prop36
280
     0
102
RTVSPost2010PropOp36
 70
     1
102
RTVSPost2010Prop37
 90
       50
102
RTVSPost2010PropOp37
 70
     1
102
RTVSPost2010Prop38
140
0.0
102
RTVSPost2010PropOp38
 70
     1
102
RTVSPost2010Prop39
140
1.0
102
RTVSPost2010PropOp39
 70
     1
102
RTVSPost2010Prop40
 90
        0
102
RTVSPost2010PropOp40
 70
     1
102
RTVSPost2010Prop41ColorIndex
 90
       18
102
RTVSPost2010Prop41ColorRGB
 90
        0
102
RTVSPost2010PropOp41
 70
     1
102
RTVSPost2010Prop42
 90
       50
102
RTVSPost2010PropOp42
 70
     1
102
RTVSPost2010Prop43
 90
        3
102
RTVSPost2010PropOp43
 70
     1
102
RTVSPost2010Prop44ColorIndex
 90
        5
102
RTVSPost2010Prop44ColorRGB
 90
      255
102
RTVSPost2010PropOp44
 70
     1
102
RTVSPost2010Prop45
280
     0
102
RTVSPost2010PropOp45
 70
     1
102
RTVSPost2010Prop46
 90
       50
102
RTVSPost2010PropOp46
 70
     1
102
RTVSPost2010Prop47
 90
       50
102
RTVSPost2010PropOp47
 70
     1
102
RTVSPost2010Prop48
 90
       50
102
RTVSPost2010PropOp48
 70
     1
102
RTVSPost2010Prop49
280
     0
102
RTVSPost2010PropOp49
 70
     1
102
RTVSPost2010Prop50
 90
       50
102
RTVSPost2010PropOp50
 70
     1
102
RTVSPost2010Prop51ColorIndex
 90
      256
102
RTVSPost2010Prop51ColorRGB
 90
-16777216
102
RTVSPost2010PropOp51
 70
     0
102
RTVSPost2010Prop52
140
1.0
102
RTVSPost2010PropOp52
 70
     0
102
RTVSPost2010Prop53
 90
        2
102
RTVSPost2010PropOp53
 70
     1
102
RTVSPost2010Prop54
  1
strokes_ogs.tif
102
RTVSPost2010PropOp54
 70
     1
102
RTVSPost2010Prop55
280
     0
102
RTVSPost2010PropOp55
 70
     1
102
RTVSPost2010Prop56
140
1.0
102
RTVSPost2010PropOp56
 70
     1
102
RTVSPost2010Prop57
140
1.0
102
RTVSPost2010PropOp57
 70
     1
102
RTVSPropertyOp0
 70
     1
102
RTVSPropertyOp1
 70
     1
102
RTVSPropertyOp2
 70
     1
102
RTVSPropertyOp3
 70
     1
102
RTVSPropertyOp4
 70
     1
102
RTVSPropertyOp5
 70
     1
102
RTVSPropertyOp6
 70
     1
102
RTVSPropertyOp7
 70
     1
102
RTVSPropertyOp8
 70
     1
102
RTVSPropertyOp9
 70
     1
102
RTVSPropertyOp10
 70
     1
102
RTVSPropertyOp11
 70
     1
102
RTVSPropertyOp12
 70
     1
102
RTVSPropertyOp13
 70
     1
102
RTVSPropertyOp14
 70
     1
102
RTVSPropertyOp15
 70
     1
102
RTVSPropertyOp16
 70
     1
102
RTVSPropertyOp17
 70
     1
102
RTVSPropertyOp18
 70
     1
102
RTVSPropertyOp19
 70
     1
102
RTVSPropertyOp20
 70
     1
102
RTVSPropertyOp21
 70
     1
102
RTVSPropertyOp22
 70
     1
102
RTVSPropertyOp23
 70
     1
102
RTVSPropertyOp24
 70
     1
102
RTVSPropertyOp25
 70
     1
102
RTVSPropertyOp26
 70
     1
102
RTVSPropertyOp27
 70
     1
102
RTVSPropertyOp28
 70
     1
102
RTVSPropertyOp29
 70
     1
102
RTVSPropertyOp30
 70
     1
102
RTVSPropertyOp31
 70
     1
102
RTVSPropertyOp32
 70
     1
102
RTVSPropertyOp33
 70
     1
102
RTVSPropertyOp34
 70
     1
102
RTVSPropertyOp35
 70
     1
102
RTVSPropertyOp36
 70
     1
102
RTVSPropertyOp37
 70
     1
102
RTVSPropertyOp38
 70
     1
102
RTVSPropertyOp39
 70
     1
102
RTVSPropertyOp40
 70
     1
102
RTVSPropertyOp41
 70
     1
102
RTVSPropertyOp42
 70
     1
102
RTVSPropertyOp43
 70
     1
102
RTVSPropertyOp44
 70
     1
102
RTVSPropertyOp45
 70
     1
102
RTVSPropertyOp46
 70
     1
102
RTVSPropertyOp47
 70
     1
102
RTVSPropertyOp48
 70
     1
102
RTVSPropertyOp49
 70
     1
102
RTVSPropertyOp50
 70
     1
102
RTVSPropertyOp51
 70
     0
102
RTVSPropertyOp52
 70
     0
102
RTVSPropertyOp53
 70
     1
102
RTVSPropertyOp54
 70
     1
102
RTVSPropertyOp55
 70
     1
102
RTVSPropertyOp56
 70
     1
102
RTVSPropertyOp57
 70
     1
102
RTVSPropertyOp58
 70
     1
102
RTVSPropertyOp59
 70
     1
102
RTVSPropertyOp60
 70
     1
102
RTVSPropertyOp61
 70
     1
102
RTVSPropertyOp62
 70
     1
  0
XRECORD
  5
45B
102
{ACAD_REACTORS
330
45A
102
}
330
45A
100
AcDbXrecord
280
     1
102
RTVSPost2010Prop28
280
     0
102
RTVSPost2010PropOp28
 70
     1
102
RTVSPost2010Prop29
280
     1
102
RTVSPost2010PropOp29
 70
     1
102
RTVSPost2010Prop30
280
     1
102
RTVSPost2010PropOp30
 70
     1
102
RTVSPost2010Prop31
280
     0
102
RTVSPost2010PropOp31
 70
     1
102
RTVSPost2010Prop32
280
     0
102
RTVSPost2010PropOp32
 70
     1
102
RTVSPost2010Prop33
280
     0
102
RTVSPost2010PropOp33
 70
     1
102
RTVSPost2010Prop34
280
     0
102
RTVSPost2010PropOp34
 70
     1
102
RTVSPost2010Prop35
280
     0
102
RTVSPost2010PropOp35
 70
     1
102
RTVSPost2010Prop36
280
     0
102
RTVSPost2010PropOp36
 70
     1
102
RTVSPost2010Prop37
 90
       50
102
RTVSPost2010PropOp37
 70
     1
102
RTVSPost2010Prop38
140
0.0
102
RTVSPost2010PropOp38
 70
     1
102
RTVSPost2010Prop39
140
1.0
102
RTVSPost2010PropOp39
 70
     1
102
RTVSPost2010Prop40
 90
        0
102
RTVSPost2010PropOp40
 70
     1
102
RTVSPost2010Prop41ColorIndex
 90
       18
102
RTVSPost2010Prop41ColorRGB
 90
        0
102
RTVSPost2010PropOp41
 70
     1
102
RTVSPost2010Prop42
 90
       50
102
RTVSPost2010PropOp42
 70
     1
102
RTVSPost2010Prop43
 90
        3
102
RTVSPost2010PropOp43
 70
     1
102
RTVSPost2010Prop44ColorIndex
 90
        5
102
RTVSPost2010Prop44ColorRGB
 90
      255
102
RTVSPost2010PropOp44
 70
     1
102
RTVSPost2010Prop45
280
     0
102
RTVSPost2010PropOp45
 70
     1
102
RTVSPost2010Prop46
 90
       50
102
RTVSPost2010PropOp46
 70
     1
102
RTVSPost2010Prop47
 90
       50
102
RTVSPost2010PropOp47
 70
     1
102
RTVSPost2010Prop48
 90
       50
102
RTVSPost2010PropOp48
 70
     1
102
RTVSPost2010Prop49
280
     0
102
RTVSPost2010PropOp49
 70
     1
102
RTVSPost2010Prop50
 90
       50
102
RTVSPost2010PropOp50
 70
     1
102
RTVSPost2010Prop51ColorIndex
 90
      256
102
RTVSPost2010Prop51ColorRGB
 90
-16777216
102
RTVSPost2010PropOp51
 70
     0
102
RTVSPost2010Prop52
140
1.0
102
RTVSPost2010PropOp52
 70
     0
102
RTVSPost2010Prop53
 90
        2
102
RTVSPost2010PropOp53
 70
     1
102
RTVSPost2010Prop54
  1
strokes_ogs.tif
102
RTVSPost2010PropOp54
 70
     1
102
RTVSPost2010Prop55
280
     0
102
RTVSPost2010PropOp55
 70
     1
102
RTVSPost2010Prop56
140
1.0
102
RTVSPost2010PropOp56
 70
     1
102
RTVSPost2010Prop57
140
1.0
102
RTVSPost2010PropOp57
 70
     1
102
RTVSPropertyOp0
 70
     1
102
RTVSPropertyOp1
 70
     1
102
RTVSPropertyOp2
 70
     1
102
RTVSPropertyOp3
 70
     1
102
RTVSPropertyOp4
 70
     1
102
RTVSPropertyOp5
 70
     1
102
RTVSPropertyOp6
 70
     1
102
RTVSPropertyOp7
 70
     1
102
RTVSPropertyOp8
 70
     1
102
RTVSPropertyOp9
 70
     1
102
RTVSPropertyOp10
 70
     1
102
RTVSPropertyOp11
 70
     1
102
RTVSPropertyOp12
 70
     1
102
RTVSPropertyOp13
 70
     1
102
RTVSPropertyOp14
 70
     1
102
RTVSPropertyOp15
 70
     1
102
RTVSPropertyOp16
 70
     1
102
RTVSPropertyOp17
 70
     1
102
RTVSPropertyOp18
 70
     1
102
RTVSPropertyOp19
 70
     1
102
RTVSPropertyOp20
 70
     1
102
RTVSPropertyOp21
 70
     1
102
RTVSPropertyOp22
 70
     1
102
RTVSPropertyOp23
 70
     1
102
RTVSPropertyOp24
 70
     1
102
RTVSPropertyOp25
 70
     1
102
RTVSPropertyOp26
 70
     1
102
RTVSPropertyOp27
 70
     1
102
RTVSPropertyOp28
 70
     1
102
RTVSPropertyOp29
 70
     1
102
RTVSPropertyOp30
 70
     1
102
RTVSPropertyOp31
 70
     1
102
RTVSPropertyOp32
 70
     1
102
RTVSPropertyOp33
 70
     1
102
RTVSPropertyOp34
 70
     1
102
RTVSPropertyOp35
 70
     1
102
RTVSPropertyOp36
 70
     1
102
RTVSPropertyOp37
 70
     1
102
RTVSPropertyOp38
 70
     1
102
RTVSPropertyOp39
 70
     1
102
RTVSPropertyOp40
 70
     1
102
RTVSPropertyOp41
 70
     1
102
RTVSPropertyOp42
 70
     1
102
RTVSPropertyOp43
 70
     1
102
RTVSPropertyOp44
 70
     1
102
RTVSPropertyOp45
 70
     1
102
RTVSPropertyOp46
 70
     1
102
RTVSPropertyOp47
 70
     1
102
RTVSPropertyOp48
 70
     1
102
RTVSPropertyOp49
 70
     1
102
RTVSPropertyOp50
 70
     1
102
RTVSPropertyOp51
 70
     0
102
RTVSPropertyOp52
 70
     0
102
RTVSPropertyOp53
 70
     1
102
RTVSPropertyOp54
 70
     1
102
RTVSPropertyOp55
 70
     1
102
RTVSPropertyOp56
 70
     1
102
RTVSPropertyOp57
 70
     1
102
RTVSPropertyOp58
 70
     1
102
RTVSPropertyOp59
 70
     1
102
RTVSPropertyOp60
 70
     1
102
RTVSPropertyOp61
 70
     1
102
RTVSPropertyOp62
 70
     1
  0
XRECORD
  5
463
102
{ACAD_REACTORS
330
462
102
}
330
462
100
AcDbXrecord
280
     1
102
RTVSPost2010Prop28
280
     0
102
RTVSPost2010PropOp28
 70
     1
102
RTVSPost2010Prop29
280
     1
102
RTVSPost2010PropOp29
 70
     1
102
RTVSPost2010Prop30
280
     1
102
RTVSPost2010PropOp30
 70
     1
102
RTVSPost2010Prop31
280
     0
102
RTVSPost2010PropOp31
 70
     1
102
RTVSPost2010Prop32
280
     0
102
RTVSPost2010PropOp32
 70
     1
102
RTVSPost2010Prop33
280
     0
102
RTVSPost2010PropOp33
 70
     1
102
RTVSPost2010Prop34
280
     0
102
RTVSPost2010PropOp34
 70
     1
102
RTVSPost2010Prop35
280
     0
102
RTVSPost2010PropOp35
 70
     1
102
RTVSPost2010Prop36
280
     0
102
RTVSPost2010PropOp36
 70
     1
102
RTVSPost2010Prop37
 90
       50
102
RTVSPost2010PropOp37
 70
     1
102
RTVSPost2010Prop38
140
0.0
102
RTVSPost2010PropOp38
 70
     1
102
RTVSPost2010Prop39
140
1.0
102
RTVSPost2010PropOp39
 70
     1
102
RTVSPost2010Prop40
 90
        0
102
RTVSPost2010PropOp40
 70
     1
102
RTVSPost2010Prop41ColorIndex
 90
       18
102
RTVSPost2010Prop41ColorRGB
 90
        0
102
RTVSPost2010PropOp41
 70
     1
102
RTVSPost2010Prop42
 90
       50
102
RTVSPost2010PropOp42
 70
     1
102
RTVSPost2010Prop43
 90
        3
102
RTVSPost2010PropOp43
 70
     1
102
RTVSPost2010Prop44ColorIndex
 90
        5
102
RTVSPost2010Prop44ColorRGB
 90
      255
102
RTVSPost2010PropOp44
 70
     1
102
RTVSPost2010Prop45
280
     0
102
RTVSPost2010PropOp45
 70
     1
102
RTVSPost2010Prop46
 90
       50
102
RTVSPost2010PropOp46
 70
     1
102
RTVSPost2010Prop47
 90
       50
102
RTVSPost2010PropOp47
 70
     1
102
RTVSPost2010Prop48
 90
       50
102
RTVSPost2010PropOp48
 70
     1
102
RTVSPost2010Prop49
280
     0
102
RTVSPost2010PropOp49
 70
     1
102
RTVSPost2010Prop50
 90
       50
102
RTVSPost2010PropOp50
 70
     1
102
RTVSPost2010Prop51ColorIndex
 90
      256
102
RTVSPost2010Prop51ColorRGB
 90
-16777216
102
RTVSPost2010PropOp51
 70
     0
102
RTVSPost2010Prop52
140
1.0
102
RTVSPost2010PropOp52
 70
     0
102
RTVSPost2010Prop53
 90
        2
102
RTVSPost2010PropOp53
 70
     1
102
RTVSPost2010Prop54
  1
strokes_ogs.tif
102
RTVSPost2010PropOp54
 70
     1
102
RTVSPost2010Prop55
280
     0
102
RTVSPost2010PropOp55
 70
     1
102
RTVSPost2010Prop56
140
1.0
102
RTVSPost2010PropOp56
 70
     1
102
RTVSPost2010Prop57
140
1.0
102
RTVSPost2010PropOp57
 70
     1
102
RTVSPropertyOp0
 70
     1
102
RTVSPropertyOp1
 70
     1
102
RTVSPropertyOp2
 70
     1
102
RTVSPropertyOp3
 70
     1
102
RTVSPropertyOp4
 70
     1
102
RTVSPropertyOp5
 70
     1
102
RTVSPropertyOp6
 70
     1
102
RTVSPropertyOp7
 70
     1
102
RTVSPropertyOp8
 70
     1
102
RTVSPropertyOp9
 70
     1
102
RTVSPropertyOp10
 70
     1
102
RTVSPropertyOp11
 70
     1
102
RTVSPropertyOp12
 70
     1
102
RTVSPropertyOp13
 70
     1
102
RTVSPropertyOp14
 70
     1
102
RTVSPropertyOp15
 70
     1
102
RTVSPropertyOp16
 70
     1
102
RTVSPropertyOp17
 70
     1
102
RTVSPropertyOp18
 70
     1
102
RTVSPropertyOp19
 70
     1
102
RTVSPropertyOp20
 70
     1
102
RTVSPropertyOp21
 70
     1
102
RTVSPropertyOp22
 70
     1
102
RTVSPropertyOp23
 70
     1
102
RTVSPropertyOp24
 70
     1
102
RTVSPropertyOp25
 70
     1
102
RTVSPropertyOp26
 70
     1
102
RTVSPropertyOp27
 70
     1
102
RTVSPropertyOp28
 70
     1
102
RTVSPropertyOp29
 70
     1
102
RTVSPropertyOp30
 70
     1
102
RTVSPropertyOp31
 70
     1
102
RTVSPropertyOp32
 70
     1
102
RTVSPropertyOp33
 70
     1
102
RTVSPropertyOp34
 70
     1
102
RTVSPropertyOp35
 70
     1
102
RTVSPropertyOp36
 70
     1
102
RTVSPropertyOp37
 70
     1
102
RTVSPropertyOp38
 70
     1
102
RTVSPropertyOp39
 70
     1
102
RTVSPropertyOp40
 70
     1
102
RTVSPropertyOp41
 70
     1
102
RTVSPropertyOp42
 70
     1
102
RTVSPropertyOp43
 70
     1
102
RTVSPropertyOp44
 70
     1
102
RTVSPropertyOp45
 70
     1
102
RTVSPropertyOp46
 70
     1
102
RTVSPropertyOp47
 70
     1
102
RTVSPropertyOp48
 70
     1
102
RTVSPropertyOp49
 70
     1
102
RTVSPropertyOp50
 70
     1
102
RTVSPropertyOp51
 70
     0
102
RTVSPropertyOp52
 70
     0
102
RTVSPropertyOp53
 70
     1
102
RTVSPropertyOp54
 70
     1
102
RTVSPropertyOp55
 70
     1
102
RTVSPropertyOp56
 70
     1
102
RTVSPropertyOp57
 70
     1
102
RTVSPropertyOp58
 70
     1
102
RTVSPropertyOp59
 70
     1
102
RTVSPropertyOp60
 70
     1
102
RTVSPropertyOp61
 70
     1
102
RTVSPropertyOp62
 70
     1
  0
XRECORD
  5
455
102
{ACAD_REACTORS
330
454
102
}
330
454
100
AcDbXrecord
280
     1
102
RTVSPost2010Prop28
280
     0
102
RTVSPost2010PropOp28
 70
     1
102
RTVSPost2010Prop29
280
     1
102
RTVSPost2010PropOp29
 70
     1
102
RTVSPost2010Prop30
280
     1
102
RTVSPost2010PropOp30
 70
     1
102
RTVSPost2010Prop31
280
     0
102
RTVSPost2010PropOp31
 70
     1
102
RTVSPost2010Prop32
280
     0
102
RTVSPost2010PropOp32
 70
     1
102
RTVSPost2010Prop33
280
     0
102
RTVSPost2010PropOp33
 70
     1
102
RTVSPost2010Prop34
280
     0
102
RTVSPost2010PropOp34
 70
     1
102
RTVSPost2010Prop35
280
     0
102
RTVSPost2010PropOp35
 70
     1
102
RTVSPost2010Prop36
280
     0
102
RTVSPost2010PropOp36
 70
     1
102
RTVSPost2010Prop37
 90
       50
102
RTVSPost2010PropOp37
 70
     1
102
RTVSPost2010Prop38
140
0.0
102
RTVSPost2010PropOp38
 70
     1
102
RTVSPost2010Prop39
140
1.0
102
RTVSPost2010PropOp39
 70
     1
102
RTVSPost2010Prop40
 90
        0
102
RTVSPost2010PropOp40
 70
     1
102
RTVSPost2010Prop41ColorIndex
 90
       18
102
RTVSPost2010Prop41ColorRGB
 90
        0
102
RTVSPost2010PropOp41
 70
     1
102
RTVSPost2010Prop42
 90
       50
102
RTVSPost2010PropOp42
 70
     1
102
RTVSPost2010Prop43
 90
        3
102
RTVSPost2010PropOp43
 70
     1
102
RTVSPost2010Prop44ColorIndex
 90
        5
102
RTVSPost2010Prop44ColorRGB
 90
      255
102
RTVSPost2010PropOp44
 70
     1
102
RTVSPost2010Prop45
280
     0
102
RTVSPost2010PropOp45
 70
     1
102
RTVSPost2010Prop46
 90
       50
102
RTVSPost2010PropOp46
 70
     1
102
RTVSPost2010Prop47
 90
       50
102
RTVSPost2010PropOp47
 70
     1
102
RTVSPost2010Prop48
 90
       50
102
RTVSPost2010PropOp48
 70
     1
102
RTVSPost2010Prop49
280
     0
102
RTVSPost2010PropOp49
 70
     1
102
RTVSPost2010Prop50
 90
       50
102
RTVSPost2010PropOp50
 70
     1
102
RTVSPost2010Prop51ColorIndex
 90
      256
102
RTVSPost2010Prop51ColorRGB
 90
-16777216
102
RTVSPost2010PropOp51
 70
     0
102
RTVSPost2010Prop52
140
1.0
102
RTVSPost2010PropOp52
 70
     0
102
RTVSPost2010Prop53
 90
        2
102
RTVSPost2010PropOp53
 70
     1
102
RTVSPost2010Prop54
  1
strokes_ogs.tif
102
RTVSPost2010PropOp54
 70
     1
102
RTVSPost2010Prop55
280
     0
102
RTVSPost2010PropOp55
 70
     1
102
RTVSPost2010Prop56
140
1.0
102
RTVSPost2010PropOp56
 70
     1
102
RTVSPost2010Prop57
140
1.0
102
RTVSPost2010PropOp57
 70
     1
102
RTVSPropertyOp0
 70
     1
102
RTVSPropertyOp1
 70
     1
102
RTVSPropertyOp2
 70
     1
102
RTVSPropertyOp3
 70
     1
102
RTVSPropertyOp4
 70
     1
102
RTVSPropertyOp5
 70
     1
102
RTVSPropertyOp6
 70
     1
102
RTVSPropertyOp7
 70
     1
102
RTVSPropertyOp8
 70
     1
102
RTVSPropertyOp9
 70
     1
102
RTVSPropertyOp10
 70
     1
102
RTVSPropertyOp11
 70
     1
102
RTVSPropertyOp12
 70
     1
102
RTVSPropertyOp13
 70
     1
102
RTVSPropertyOp14
 70
     1
102
RTVSPropertyOp15
 70
     1
102
RTVSPropertyOp16
 70
     1
102
RTVSPropertyOp17
 70
     1
102
RTVSPropertyOp18
 70
     1
102
RTVSPropertyOp19
 70
     1
102
RTVSPropertyOp20
 70
     1
102
RTVSPropertyOp21
 70
     1
102
RTVSPropertyOp22
 70
     1
102
RTVSPropertyOp23
 70
     1
102
RTVSPropertyOp24
 70
     1
102
RTVSPropertyOp25
 70
     1
102
RTVSPropertyOp26
 70
     1
102
RTVSPropertyOp27
 70
     1
102
RTVSPropertyOp28
 70
     1
102
RTVSPropertyOp29
 70
     1
102
RTVSPropertyOp30
 70
     1
102
RTVSPropertyOp31
 70
     1
102
RTVSPropertyOp32
 70
     1
102
RTVSPropertyOp33
 70
     1
102
RTVSPropertyOp34
 70
     1
102
RTVSPropertyOp35
 70
     1
102
RTVSPropertyOp36
 70
     1
102
RTVSPropertyOp37
 70
     1
102
RTVSPropertyOp38
 70
     1
102
RTVSPropertyOp39
 70
     1
102
RTVSPropertyOp40
 70
     1
102
RTVSPropertyOp41
 70
     1
102
RTVSPropertyOp42
 70
     1
102
RTVSPropertyOp43
 70
     1
102
RTVSPropertyOp44
 70
     1
102
RTVSPropertyOp45
 70
     1
102
RTVSPropertyOp46
 70
     1
102
RTVSPropertyOp47
 70
     1
102
RTVSPropertyOp48
 70
     1
102
RTVSPropertyOp49
 70
     1
102
RTVSPropertyOp50
 70
     1
102
RTVSPropertyOp51
 70
     0
102
RTVSPropertyOp52
 70
     0
102
RTVSPropertyOp53
 70
     1
102
RTVSPropertyOp54
 70
     1
102
RTVSPropertyOp55
 70
     1
102
RTVSPropertyOp56
 70
     1
102
RTVSPropertyOp57
 70
     1
102
RTVSPropertyOp58
 70
     1
102
RTVSPropertyOp59
 70
     1
102
RTVSPropertyOp60
 70
     1
102
RTVSPropertyOp61
 70
     1
102
RTVSPropertyOp62
 70
     1
  0
XRECORD
  5
459
102
{ACAD_REACTORS
330
458
102
}
330
458
100
AcDbXrecord
280
     1
102
RTVSPost2010Prop28
280
     0
102
RTVSPost2010PropOp28
 70
     1
102
RTVSPost2010Prop29
280
     1
102
RTVSPost2010PropOp29
 70
     1
102
RTVSPost2010Prop30
280
     1
102
RTVSPost2010PropOp30
 70
     1
102
RTVSPost2010Prop31
280
     0
102
RTVSPost2010PropOp31
 70
     1
102
RTVSPost2010Prop32
280
     0
102
RTVSPost2010PropOp32
 70
     1
102
RTVSPost2010Prop33
280
     0
102
RTVSPost2010PropOp33
 70
     1
102
RTVSPost2010Prop34
280
     0
102
RTVSPost2010PropOp34
 70
     1
102
RTVSPost2010Prop35
280
     0
102
RTVSPost2010PropOp35
 70
     1
102
RTVSPost2010Prop36
280
     0
102
RTVSPost2010PropOp36
 70
     1
102
RTVSPost2010Prop37
 90
       50
102
RTVSPost2010PropOp37
 70
     1
102
RTVSPost2010Prop38
140
0.0
102
RTVSPost2010PropOp38
 70
     1
102
RTVSPost2010Prop39
140
1.0
102
RTVSPost2010PropOp39
 70
     1
102
RTVSPost2010Prop40
 90
        0
102
RTVSPost2010PropOp40
 70
     1
102
RTVSPost2010Prop41ColorIndex
 90
       18
102
RTVSPost2010Prop41ColorRGB
 90
        0
102
RTVSPost2010PropOp41
 70
     1
102
RTVSPost2010Prop42
 90
       50
102
RTVSPost2010PropOp42
 70
     1
102
RTVSPost2010Prop43
 90
        3
102
RTVSPost2010PropOp43
 70
     1
102
RTVSPost2010Prop44ColorIndex
 90
        5
102
RTVSPost2010Prop44ColorRGB
 90
      255
102
RTVSPost2010PropOp44
 70
     1
102
RTVSPost2010Prop45
280
     0
102
RTVSPost2010PropOp45
 70
     1
102
RTVSPost2010Prop46
 90
       50
102
RTVSPost2010PropOp46
 70
     1
102
RTVSPost2010Prop47
 90
       50
102
RTVSPost2010PropOp47
 70
     1
102
RTVSPost2010Prop48
 90
       50
102
RTVSPost2010PropOp48
 70
     1
102
RTVSPost2010Prop49
280
     0
102
RTVSPost2010PropOp49
 70
     1
102
RTVSPost2010Prop50
 90
       50
102
RTVSPost2010PropOp50
 70
     1
102
RTVSPost2010Prop51ColorIndex
 90
      256
102
RTVSPost2010Prop51ColorRGB
 90
-16777216
102
RTVSPost2010PropOp51
 70
     0
102
RTVSPost2010Prop52
140
1.0
102
RTVSPost2010PropOp52
 70
     0
102
RTVSPost2010Prop53
 90
        2
102
RTVSPost2010PropOp53
 70
     1
102
RTVSPost2010Prop54
  1
strokes_ogs.tif
102
RTVSPost2010PropOp54
 70
     1
102
RTVSPost2010Prop55
280
     0
102
RTVSPost2010PropOp55
 70
     1
102
RTVSPost2010Prop56
140
1.0
102
RTVSPost2010PropOp56
 70
     1
102
RTVSPost2010Prop57
140
1.0
102
RTVSPost2010PropOp57
 70
     1
102
RTVSPropertyOp0
 70
     1
102
RTVSPropertyOp1
 70
     1
102
RTVSPropertyOp2
 70
     1
102
RTVSPropertyOp3
 70
     1
102
RTVSPropertyOp4
 70
     1
102
RTVSPropertyOp5
 70
     1
102
RTVSPropertyOp6
 70
     1
102
RTVSPropertyOp7
 70
     1
102
RTVSPropertyOp8
 70
     1
102
RTVSPropertyOp9
 70
     1
102
RTVSPropertyOp10
 70
     1
102
RTVSPropertyOp11
 70
     1
102
RTVSPropertyOp12
 70
     1
102
RTVSPropertyOp13
 70
     1
102
RTVSPropertyOp14
 70
     1
102
RTVSPropertyOp15
 70
     1
102
RTVSPropertyOp16
 70
     1
102
RTVSPropertyOp17
 70
     1
102
RTVSPropertyOp18
 70
     1
102
RTVSPropertyOp19
 70
     1
102
RTVSPropertyOp20
 70
     1
102
RTVSPropertyOp21
 70
     1
102
RTVSPropertyOp22
 70
     1
102
RTVSPropertyOp23
 70
     1
102
RTVSPropertyOp24
 70
     1
102
RTVSPropertyOp25
 70
     1
102
RTVSPropertyOp26
 70
     1
102
RTVSPropertyOp27
 70
     1
102
RTVSPropertyOp28
 70
     1
102
RTVSPropertyOp29
 70
     1
102
RTVSPropertyOp30
 70
     1
102
RTVSPropertyOp31
 70
     1
102
RTVSPropertyOp32
 70
     1
102
RTVSPropertyOp33
 70
     1
102
RTVSPropertyOp34
 70
     1
102
RTVSPropertyOp35
 70
     1
102
RTVSPropertyOp36
 70
     1
102
RTVSPropertyOp37
 70
     1
102
RTVSPropertyOp38
 70
     1
102
RTVSPropertyOp39
 70
     1
102
RTVSPropertyOp40
 70
     1
102
RTVSPropertyOp41
 70
     1
102
RTVSPropertyOp42
 70
     1
102
RTVSPropertyOp43
 70
     1
102
RTVSPropertyOp44
 70
     1
102
RTVSPropertyOp45
 70
     1
102
RTVSPropertyOp46
 70
     1
102
RTVSPropertyOp47
 70
     1
102
RTVSPropertyOp48
 70
     1
102
RTVSPropertyOp49
 70
     1
102
RTVSPropertyOp50
 70
     1
102
RTVSPropertyOp51
 70
     0
102
RTVSPropertyOp52
 70
     0
102
RTVSPropertyOp53
 70
     1
102
RTVSPropertyOp54
 70
     1
102
RTVSPropertyOp55
 70
     1
102
RTVSPropertyOp56
 70
     1
102
RTVSPropertyOp57
 70
     1
102
RTVSPropertyOp58
 70
     1
102
RTVSPropertyOp59
 70
     1
102
RTVSPropertyOp60
 70
     1
102
RTVSPropertyOp61
 70
     1
102
RTVSPropertyOp62
 70
     1
  0
XRECORD
  5
473
102
{ACAD_REACTORS
330
472
102
}
330
472
100
AcDbXrecord
280
     1
102
RTVSPost2010Prop28
280
     0
102
RTVSPost2010PropOp28
 70
     1
102
RTVSPost2010Prop29
280
     1
102
RTVSPost2010PropOp29
 70
     1
102
RTVSPost2010Prop30
280
     1
102
RTVSPost2010PropOp30
 70
     1
102
RTVSPost2010Prop31
280
     0
102
RTVSPost2010PropOp31
 70
     1
102
RTVSPost2010Prop32
280
     0
102
RTVSPost2010PropOp32
 70
     1
102
RTVSPost2010Prop33
280
     0
102
RTVSPost2010PropOp33
 70
     1
102
RTVSPost2010Prop34
280
     0
102
RTVSPost2010PropOp34
 70
     1
102
RTVSPost2010Prop35
280
     0
102
RTVSPost2010PropOp35
 70
     1
102
RTVSPost2010Prop36
280
     0
102
RTVSPost2010PropOp36
 70
     1
102
RTVSPost2010Prop37
 90
       50
102
RTVSPost2010PropOp37
 70
     0
102
RTVSPost2010Prop38
140
0.0
102
RTVSPost2010PropOp38
 70
     0
102
RTVSPost2010Prop39
140
1.0
102
RTVSPost2010PropOp39
 70
     0
102
RTVSPost2010Prop40
 90
        0
102
RTVSPost2010PropOp40
 70
     0
102
RTVSPost2010Prop41ColorIndex
 90
       18
102
RTVSPost2010Prop41ColorRGB
 90
        0
102
RTVSPost2010PropOp41
 70
     0
102
RTVSPost2010Prop42
 90
       50
102
RTVSPost2010PropOp42
 70
     0
102
RTVSPost2010Prop43
 90
        3
102
RTVSPost2010PropOp43
 70
     0
102
RTVSPost2010Prop44ColorIndex
 90
        5
102
RTVSPost2010Prop44ColorRGB
 90
      255
102
RTVSPost2010PropOp44
 70
     0
102
RTVSPost2010Prop45
280
     0
102
RTVSPost2010PropOp45
 70
     1
102
RTVSPost2010Prop46
 90
       50
102
RTVSPost2010PropOp46
 70
     0
102
RTVSPost2010Prop47
 90
       50
102
RTVSPost2010PropOp47
 70
     0
102
RTVSPost2010Prop48
 90
       50
102
RTVSPost2010PropOp48
 70
     0
102
RTVSPost2010Prop49
280
     0
102
RTVSPost2010PropOp49
 70
     1
102
RTVSPost2010Prop50
 90
       50
102
RTVSPost2010PropOp50
 70
     0
102
RTVSPost2010Prop51ColorIndex
 90
      256
102
RTVSPost2010Prop51ColorRGB
 90
-16777216
102
RTVSPost2010PropOp51
 70
     0
102
RTVSPost2010Prop52
140
1.0
102
RTVSPost2010PropOp52
 70
     0
102
RTVSPost2010Prop53
 90
        2
102
RTVSPost2010PropOp53
 70
     0
102
RTVSPost2010Prop54
  1
strokes_ogs.tif
102
RTVSPost2010PropOp54
 70
     0
102
RTVSPost2010Prop55
280
     0
102
RTVSPost2010PropOp55
 70
     1
102
RTVSPost2010Prop56
140
1.0
102
RTVSPost2010PropOp56
 70
     0
102
RTVSPost2010Prop57
140
1.0
102
RTVSPost2010PropOp57
 70
     0
102
RTVSPropertyOp0
 70
     0
102
RTVSPropertyOp1
 70
     0
102
RTVSPropertyOp2
 70
     0
102
RTVSPropertyOp3
 70
     0
102
RTVSPropertyOp4
 70
     0
102
RTVSPropertyOp5
 70
     0
102
RTVSPropertyOp6
 70
     0
102
RTVSPropertyOp7
 70
     0
102
RTVSPropertyOp8
 70
     0
102
RTVSPropertyOp9
 70
     0
102
RTVSPropertyOp10
 70
     0
102
RTVSPropertyOp11
 70
     0
102
RTVSPropertyOp12
 70
     0
102
RTVSPropertyOp13
 70
     0
102
RTVSPropertyOp14
 70
     2
102
RTVSPropertyOp15
 70
     0
102
RTVSPropertyOp16
 70
     0
102
RTVSPropertyOp17
 70
     0
102
RTVSPropertyOp18
 70
     0
102
RTVSPropertyOp19
 70
     0
102
RTVSPropertyOp20
 70
     0
102
RTVSPropertyOp21
 70
     0
102
RTVSPropertyOp22
 70
     0
102
RTVSPropertyOp23
 70
     0
102
RTVSPropertyOp24
 70
     0
102
RTVSPropertyOp25
 70
     0
102
RTVSPropertyOp26
 70
     0
102
RTVSPropertyOp27
 70
     0
102
RTVSPropertyOp28
 70
     1
102
RTVSPropertyOp29
 70
     1
102
RTVSPropertyOp30
 70
     1
102
RTVSPropertyOp31
 70
     1
102
RTVSPropertyOp32
 70
     1
102
RTVSPropertyOp33
 70
     1
102
RTVSPropertyOp34
 70
     1
102
RTVSPropertyOp35
 70
     1
102
RTVSPropertyOp36
 70
     1
102
RTVSPropertyOp37
 70
     0
102
RTVSPropertyOp38
 70
     0
102
RTVSPropertyOp39
 70
     0
102
RTVSPropertyOp40
 70
     0
102
RTVSPropertyOp41
 70
     0
102
RTVSPropertyOp42
 70
     0
102
RTVSPropertyOp43
 70
     0
102
RTVSPropertyOp44
 70
     0
102
RTVSPropertyOp45
 70
     1
102
RTVSPropertyOp46
 70
     0
102
RTVSPropertyOp47
 70
     0
102
RTVSPropertyOp48
 70
     0
102
RTVSPropertyOp49
 70
     1
102
RTVSPropertyOp50
 70
     0
102
RTVSPropertyOp51
 70
     0
102
RTVSPropertyOp52
 70
     0
102
RTVSPropertyOp53
 70
     0
102
RTVSPropertyOp54
 70
     0
102
RTVSPropertyOp55
 70
     1
102
RTVSPropertyOp56
 70
     0
102
RTVSPropertyOp57
 70
     0
102
RTVSPropertyOp58
 70
     0
102
RTVSPropertyOp59
 70
     0
102
RTVSPropertyOp60
 70
     0
102
RTVSPropertyOp61
 70
     0
102
RTVSPropertyOp62
 70
     0
  0
XRECORD
  5
461
102
{ACAD_REACTORS
330
460
102
}
330
460
100
AcDbXrecord
280
     1
102
RTVSPost2010Prop28
280
     0
102
RTVSPost2010PropOp28
 70
     1
102
RTVSPost2010Prop29
280
     1
102
RTVSPost2010PropOp29
 70
     1
102
RTVSPost2010Prop30
280
     1
102
RTVSPost2010PropOp30
 70
     1
102
RTVSPost2010Prop31
280
     0
102
RTVSPost2010PropOp31
 70
     1
102
RTVSPost2010Prop32
280
     0
102
RTVSPost2010PropOp32
 70
     1
102
RTVSPost2010Prop33
280
     0
102
RTVSPost2010PropOp33
 70
     1
102
RTVSPost2010Prop34
280
     0
102
RTVSPost2010PropOp34
 70
     1
102
RTVSPost2010Prop35
280
     0
102
RTVSPost2010PropOp35
 70
     1
102
RTVSPost2010Prop36
280
     0
102
RTVSPost2010PropOp36
 70
     1
102
RTVSPost2010Prop37
 90
       50
102
RTVSPost2010PropOp37
 70
     1
102
RTVSPost2010Prop38
140
0.0
102
RTVSPost2010PropOp38
 70
     1
102
RTVSPost2010Prop39
140
1.0
102
RTVSPost2010PropOp39
 70
     1
102
RTVSPost2010Prop40
 90
        0
102
RTVSPost2010PropOp40
 70
     1
102
RTVSPost2010Prop41ColorIndex
 90
       18
102
RTVSPost2010Prop41ColorRGB
 90
        0
102
RTVSPost2010PropOp41
 70
     1
102
RTVSPost2010Prop42
 90
       50
102
RTVSPost2010PropOp42
 70
     1
102
RTVSPost2010Prop43
 90
        3
102
RTVSPost2010PropOp43
 70
     1
102
RTVSPost2010Prop44ColorIndex
 90
        5
102
RTVSPost2010Prop44ColorRGB
 90
      255
102
RTVSPost2010PropOp44
 70
     1
102
RTVSPost2010Prop45
280
     0
102
RTVSPost2010PropOp45
 70
     1
102
RTVSPost2010Prop46
 90
       50
102
RTVSPost2010PropOp46
 70
     1
102
RTVSPost2010Prop47
 90
       50
102
RTVSPost2010PropOp47
 70
     1
102
RTVSPost2010Prop48
 90
       50
102
RTVSPost2010PropOp48
 70
     1
102
RTVSPost2010Prop49
280
     0
102
RTVSPost2010PropOp49
 70
     1
102
RTVSPost2010Prop50
 90
       50
102
RTVSPost2010PropOp50
 70
     1
102
RTVSPost2010Prop51ColorIndex
 90
      256
102
RTVSPost2010Prop51ColorRGB
 90
-16777216
102
RTVSPost2010PropOp51
 70
     0
102
RTVSPost2010Prop52
140
1.0
102
RTVSPost2010PropOp52
 70
     0
102
RTVSPost2010Prop53
 90
        2
102
RTVSPost2010PropOp53
 70
     1
102
RTVSPost2010Prop54
  1
strokes_ogs.tif
102
RTVSPost2010PropOp54
 70
     1
102
RTVSPost2010Prop55
280
     0
102
RTVSPost2010PropOp55
 70
     1
102
RTVSPost2010Prop56
140
1.0
102
RTVSPost2010PropOp56
 70
     1
102
RTVSPost2010Prop57
140
1.0
102
RTVSPost2010PropOp57
 70
     1
102
RTVSPropertyOp0
 70
     1
102
RTVSPropertyOp1
 70
     1
102
RTVSPropertyOp2
 70
     1
102
RTVSPropertyOp3
 70
     1
102
RTVSPropertyOp4
 70
     1
102
RTVSPropertyOp5
 70
     1
102
RTVSPropertyOp6
 70
     1
102
RTVSPropertyOp7
 70
     1
102
RTVSPropertyOp8
 70
     1
102
RTVSPropertyOp9
 70
     1
102
RTVSPropertyOp10
 70
     1
102
RTVSPropertyOp11
 70
     1
102
RTVSPropertyOp12
 70
     1
102
RTVSPropertyOp13
 70
     1
102
RTVSPropertyOp14
 70
     1
102
RTVSPropertyOp15
 70
     1
102
RTVSPropertyOp16
 70
     1
102
RTVSPropertyOp17
 70
     1
102
RTVSPropertyOp18
 70
     1
102
RTVSPropertyOp19
 70
     1
102
RTVSPropertyOp20
 70
     1
102
RTVSPropertyOp21
 70
     1
102
RTVSPropertyOp22
 70
     1
102
RTVSPropertyOp23
 70
     1
102
RTVSPropertyOp24
 70
     1
102
RTVSPropertyOp25
 70
     1
102
RTVSPropertyOp26
 70
     1
102
RTVSPropertyOp27
 70
     1
102
RTVSPropertyOp28
 70
     1
102
RTVSPropertyOp29
 70
     1
102
RTVSPropertyOp30
 70
     1
102
RTVSPropertyOp31
 70
     1
102
RTVSPropertyOp32
 70
     1
102
RTVSPropertyOp33
 70
     1
102
RTVSPropertyOp34
 70
     1
102
RTVSPropertyOp35
 70
     1
102
RTVSPropertyOp36
 70
     1
102
RTVSPropertyOp37
 70
     1
102
RTVSPropertyOp38
 70
     1
102
RTVSPropertyOp39
 70
     1
102
RTVSPropertyOp40
 70
     1
102
RTVSPropertyOp41
 70
     1
102
RTVSPropertyOp42
 70
     1
102
RTVSPropertyOp43
 70
     1
102
RTVSPropertyOp44
 70
     1
102
RTVSPropertyOp45
 70
     1
102
RTVSPropertyOp46
 70
     1
102
RTVSPropertyOp47
 70
     1
102
RTVSPropertyOp48
 70
     1
102
RTVSPropertyOp49
 70
     1
102
RTVSPropertyOp50
 70
     1
102
RTVSPropertyOp51
 70
     0
102
RTVSPropertyOp52
 70
     0
102
RTVSPropertyOp53
 70
     1
102
RTVSPropertyOp54
 70
     1
102
RTVSPropertyOp55
 70
     1
102
RTVSPropertyOp56
 70
     1
102
RTVSPropertyOp57
 70
     1
102
RTVSPropertyOp58
 70
     1
102
RTVSPropertyOp59
 70
     1
102
RTVSPropertyOp60
 70
     1
102
RTVSPropertyOp61
 70
     1
102
RTVSPropertyOp62
 70
     1
  0
XRECORD
  5
445
102
{ACAD_REACTORS
330
444
102
}
330
444
100
AcDbXrecord
280
     1
102
RTVSPost2010Prop28
280
     0
102
RTVSPost2010PropOp28
 70
     1
102
RTVSPost2010Prop29
280
     1
102
RTVSPost2010PropOp29
 70
     1
102
RTVSPost2010Prop30
280
     1
102
RTVSPost2010PropOp30
 70
     1
102
RTVSPost2010Prop31
280
     0
102
RTVSPost2010PropOp31
 70
     1
102
RTVSPost2010Prop32
280
     0
102
RTVSPost2010PropOp32
 70
     1
102
RTVSPost2010Prop33
280
     0
102
RTVSPost2010PropOp33
 70
     1
102
RTVSPost2010Prop34
280
     0
102
RTVSPost2010PropOp34
 70
     1
102
RTVSPost2010Prop35
280
     0
102
RTVSPost2010PropOp35
 70
     1
102
RTVSPost2010Prop36
280
     0
102
RTVSPost2010PropOp36
 70
     1
102
RTVSPost2010Prop37
 90
       50
102
RTVSPost2010PropOp37
 70
     1
102
RTVSPost2010Prop38
140
0.0
102
RTVSPost2010PropOp38
 70
     1
102
RTVSPost2010Prop39
140
1.0
102
RTVSPost2010PropOp39
 70
     1
102
RTVSPost2010Prop40
 90
        0
102
RTVSPost2010PropOp40
 70
     1
102
RTVSPost2010Prop41ColorIndex
 90
       18
102
RTVSPost2010Prop41ColorRGB
 90
        0
102
RTVSPost2010PropOp41
 70
     1
102
RTVSPost2010Prop42
 90
       50
102
RTVSPost2010PropOp42
 70
     1
102
RTVSPost2010Prop43
 90
        3
102
RTVSPost2010PropOp43
 70
     1
102
RTVSPost2010Prop44ColorIndex
 90
        5
102
RTVSPost2010Prop44ColorRGB
 90
      255
102
RTVSPost2010PropOp44
 70
     1
102
RTVSPost2010Prop45
280
     0
102
RTVSPost2010PropOp45
 70
     1
102
RTVSPost2010Prop46
 90
       50
102
RTVSPost2010PropOp46
 70
     1
102
RTVSPost2010Prop47
 90
       50
102
RTVSPost2010PropOp47
 70
     1
102
RTVSPost2010Prop48
 90
       50
102
RTVSPost2010PropOp48
 70
     1
102
RTVSPost2010Prop49
280
     0
102
RTVSPost2010PropOp49
 70
     1
102
RTVSPost2010Prop50
 90
       50
102
RTVSPost2010PropOp50
 70
     1
102
RTVSPost2010Prop51ColorIndex
 90
      256
102
RTVSPost2010Prop51ColorRGB
 90
-16777216
102
RTVSPost2010PropOp51
 70
     0
102
RTVSPost2010Prop52
140
1.0
102
RTVSPost2010PropOp52
 70
     0
102
RTVSPost2010Prop53
 90
        2
102
RTVSPost2010PropOp53
 70
     1
102
RTVSPost2010Prop54
  1
strokes_ogs.tif
102
RTVSPost2010PropOp54
 70
     1
102
RTVSPost2010Prop55
280
     0
102
RTVSPost2010PropOp55
 70
     1
102
RTVSPost2010Prop56
140
1.0
102
RTVSPost2010PropOp56
 70
     1
102
RTVSPost2010Prop57
140
1.0
102
RTVSPost2010PropOp57
 70
     1
102
RTVSPropertyOp0
 70
     1
102
RTVSPropertyOp1
 70
     1
102
RTVSPropertyOp2
 70
     1
102
RTVSPropertyOp3
 70
     1
102
RTVSPropertyOp4
 70
     1
102
RTVSPropertyOp5
 70
     1
102
RTVSPropertyOp6
 70
     1
102
RTVSPropertyOp7
 70
     1
102
RTVSPropertyOp8
 70
     1
102
RTVSPropertyOp9
 70
     1
102
RTVSPropertyOp10
 70
     1
102
RTVSPropertyOp11
 70
     1
102
RTVSPropertyOp12
 70
     1
102
RTVSPropertyOp13
 70
     1
102
RTVSPropertyOp14
 70
     1
102
RTVSPropertyOp15
 70
     1
102
RTVSPropertyOp16
 70
     1
102
RTVSPropertyOp17
 70
     1
102
RTVSPropertyOp18
 70
     1
102
RTVSPropertyOp19
 70
     1
102
RTVSPropertyOp20
 70
     1
102
RTVSPropertyOp21
 70
     1
102
RTVSPropertyOp22
 70
     1
102
RTVSPropertyOp23
 70
     1
102
RTVSPropertyOp24
 70
     1
102
RTVSPropertyOp25
 70
     1
102
RTVSPropertyOp26
 70
     1
102
RTVSPropertyOp27
 70
     1
102
RTVSPropertyOp28
 70
     1
102
RTVSPropertyOp29
 70
     1
102
RTVSPropertyOp30
 70
     1
102
RTVSPropertyOp31
 70
     1
102
RTVSPropertyOp32
 70
     1
102
RTVSPropertyOp33
 70
     1
102
RTVSPropertyOp34
 70
     1
102
RTVSPropertyOp35
 70
     1
102
RTVSPropertyOp36
 70
     1
102
RTVSPropertyOp37
 70
     1
102
RTVSPropertyOp38
 70
     1
102
RTVSPropertyOp39
 70
     1
102
RTVSPropertyOp40
 70
     1
102
RTVSPropertyOp41
 70
     1
102
RTVSPropertyOp42
 70
     1
102
RTVSPropertyOp43
 70
     1
102
RTVSPropertyOp44
 70
     1
102
RTVSPropertyOp45
 70
     1
102
RTVSPropertyOp46
 70
     1
102
RTVSPropertyOp47
 70
     1
102
RTVSPropertyOp48
 70
     1
102
RTVSPropertyOp49
 70
     1
102
RTVSPropertyOp50
 70
     1
102
RTVSPropertyOp51
 70
     0
102
RTVSPropertyOp52
 70
     0
102
RTVSPropertyOp53
 70
     1
102
RTVSPropertyOp54
 70
     1
102
RTVSPropertyOp55
 70
     1
102
RTVSPropertyOp56
 70
     1
102
RTVSPropertyOp57
 70
     1
102
RTVSPropertyOp58
 70
     1
102
RTVSPropertyOp59
 70
     1
102
RTVSPropertyOp60
 70
     1
102
RTVSPropertyOp61
 70
     1
102
RTVSPropertyOp62
 70
     1
  0
XRECORD
  5
447
102
{ACAD_REACTORS
330
446
102
}
330
446
100
AcDbXrecord
280
     1
102
RTVSPost2010Prop28
280
     0
102
RTVSPost2010PropOp28
 70
     1
102
RTVSPost2010Prop29
280
     1
102
RTVSPost2010PropOp29
 70
     1
102
RTVSPost2010Prop30
280
     1
102
RTVSPost2010PropOp30
 70
     1
102
RTVSPost2010Prop31
280
     0
102
RTVSPost2010PropOp31
 70
     1
102
RTVSPost2010Prop32
280
     0
102
RTVSPost2010PropOp32
 70
     1
102
RTVSPost2010Prop33
280
     0
102
RTVSPost2010PropOp33
 70
     1
102
RTVSPost2010Prop34
280
     0
102
RTVSPost2010PropOp34
 70
     1
102
RTVSPost2010Prop35
280
     0
102
RTVSPost2010PropOp35
 70
     1
102
RTVSPost2010Prop36
280
     0
102
RTVSPost2010PropOp36
 70
     1
102
RTVSPost2010Prop37
 90
       50
102
RTVSPost2010PropOp37
 70
     1
102
RTVSPost2010Prop38
140
0.0
102
RTVSPost2010PropOp38
 70
     1
102
RTVSPost2010Prop39
140
1.0
102
RTVSPost2010PropOp39
 70
     1
102
RTVSPost2010Prop40
 90
        0
102
RTVSPost2010PropOp40
 70
     1
102
RTVSPost2010Prop41ColorIndex
 90
       18
102
RTVSPost2010Prop41ColorRGB
 90
        0
102
RTVSPost2010PropOp41
 70
     1
102
RTVSPost2010Prop42
 90
       50
102
RTVSPost2010PropOp42
 70
     1
102
RTVSPost2010Prop43
 90
        3
102
RTVSPost2010PropOp43
 70
     1
102
RTVSPost2010Prop44ColorIndex
 90
        5
102
RTVSPost2010Prop44ColorRGB
 90
      255
102
RTVSPost2010PropOp44
 70
     1
102
RTVSPost2010Prop45
280
     0
102
RTVSPost2010PropOp45
 70
     1
102
RTVSPost2010Prop46
 90
       50
102
RTVSPost2010PropOp46
 70
     1
102
RTVSPost2010Prop47
 90
       50
102
RTVSPost2010PropOp47
 70
     1
102
RTVSPost2010Prop48
 90
       50
102
RTVSPost2010PropOp48
 70
     1
102
RTVSPost2010Prop49
280
     0
102
RTVSPost2010PropOp49
 70
     1
102
RTVSPost2010Prop50
 90
       50
102
RTVSPost2010PropOp50
 70
     1
102
RTVSPost2010Prop51ColorIndex
 90
      256
102
RTVSPost2010Prop51ColorRGB
 90
-16777216
102
RTVSPost2010PropOp51
 70
     0
102
RTVSPost2010Prop52
140
1.0
102
RTVSPost2010PropOp52
 70
     0
102
RTVSPost2010Prop53
 90
        2
102
RTVSPost2010PropOp53
 70
     1
102
RTVSPost2010Prop54
  1
strokes_ogs.tif
102
RTVSPost2010PropOp54
 70
     1
102
RTVSPost2010Prop55
280
     0
102
RTVSPost2010PropOp55
 70
     1
102
RTVSPost2010Prop56
140
1.0
102
RTVSPost2010PropOp56
 70
     1
102
RTVSPost2010Prop57
140
1.0
102
RTVSPost2010PropOp57
 70
     1
102
RTVSPropertyOp0
 70
     1
102
RTVSPropertyOp1
 70
     1
102
RTVSPropertyOp2
 70
     1
102
RTVSPropertyOp3
 70
     1
102
RTVSPropertyOp4
 70
     1
102
RTVSPropertyOp5
 70
     1
102
RTVSPropertyOp6
 70
     1
102
RTVSPropertyOp7
 70
     1
102
RTVSPropertyOp8
 70
     1
102
RTVSPropertyOp9
 70
     1
102
RTVSPropertyOp10
 70
     1
102
RTVSPropertyOp11
 70
     1
102
RTVSPropertyOp12
 70
     1
102
RTVSPropertyOp13
 70
     1
102
RTVSPropertyOp14
 70
     1
102
RTVSPropertyOp15
 70
     1
102
RTVSPropertyOp16
 70
     1
102
RTVSPropertyOp17
 70
     1
102
RTVSPropertyOp18
 70
     1
102
RTVSPropertyOp19
 70
     1
102
RTVSPropertyOp20
 70
     1
102
RTVSPropertyOp21
 70
     1
102
RTVSPropertyOp22
 70
     1
102
RTVSPropertyOp23
 70
     1
102
RTVSPropertyOp24
 70
     1
102
RTVSPropertyOp25
 70
     1
102
RTVSPropertyOp26
 70
     1
102
RTVSPropertyOp27
 70
     1
102
RTVSPropertyOp28
 70
     1
102
RTVSPropertyOp29
 70
     1
102
RTVSPropertyOp30
 70
     1
102
RTVSPropertyOp31
 70
     1
102
RTVSPropertyOp32
 70
     1
102
RTVSPropertyOp33
 70
     1
102
RTVSPropertyOp34
 70
     1
102
RTVSPropertyOp35
 70
     1
102
RTVSPropertyOp36
 70
     1
102
RTVSPropertyOp37
 70
     1
102
RTVSPropertyOp38
 70
     1
102
RTVSPropertyOp39
 70
     1
102
RTVSPropertyOp40
 70
     1
102
RTVSPropertyOp41
 70
     1
102
RTVSPropertyOp42
 70
     1
102
RTVSPropertyOp43
 70
     1
102
RTVSPropertyOp44
 70
     1
102
RTVSPropertyOp45
 70
     1
102
RTVSPropertyOp46
 70
     1
102
RTVSPropertyOp47
 70
     1
102
RTVSPropertyOp48
 70
     1
102
RTVSPropertyOp49
 70
     1
102
RTVSPropertyOp50
 70
     1
102
RTVSPropertyOp51
 70
     0
102
RTVSPropertyOp52
 70
     0
102
RTVSPropertyOp53
 70
     1
102
RTVSPropertyOp54
 70
     1
102
RTVSPropertyOp55
 70
     1
102
RTVSPropertyOp56
 70
     1
102
RTVSPropertyOp57
 70
     1
102
RTVSPropertyOp58
 70
     1
102
RTVSPropertyOp59
 70
     1
102
RTVSPropertyOp60
 70
     1
102
RTVSPropertyOp61
 70
     1
102
RTVSPropertyOp62
 70
     1
  0
XRECORD
  5
449
102
{ACAD_REACTORS
330
448
102
}
330
448
100
AcDbXrecord
280
     1
102
RTVSPost2010Prop28
280
     0
102
RTVSPost2010PropOp28
 70
     1
102
RTVSPost2010Prop29
280
     1
102
RTVSPost2010PropOp29
 70
     1
102
RTVSPost2010Prop30
280
     1
102
RTVSPost2010PropOp30
 70
     1
102
RTVSPost2010Prop31
280
     0
102
RTVSPost2010PropOp31
 70
     1
102
RTVSPost2010Prop32
280
     0
102
RTVSPost2010PropOp32
 70
     1
102
RTVSPost2010Prop33
280
     0
102
RTVSPost2010PropOp33
 70
     1
102
RTVSPost2010Prop34
280
     0
102
RTVSPost2010PropOp34
 70
     1
102
RTVSPost2010Prop35
280
     0
102
RTVSPost2010PropOp35
 70
     1
102
RTVSPost2010Prop36
280
     0
102
RTVSPost2010PropOp36
 70
     1
102
RTVSPost2010Prop37
 90
       50
102
RTVSPost2010PropOp37
 70
     1
102
RTVSPost2010Prop38
140
0.0
102
RTVSPost2010PropOp38
 70
     1
102
RTVSPost2010Prop39
140
1.0
102
RTVSPost2010PropOp39
 70
     1
102
RTVSPost2010Prop40
 90
        0
102
RTVSPost2010PropOp40
 70
     1
102
RTVSPost2010Prop41ColorIndex
 90
       18
102
RTVSPost2010Prop41ColorRGB
 90
        0
102
RTVSPost2010PropOp41
 70
     1
102
RTVSPost2010Prop42
 90
       50
102
RTVSPost2010PropOp42
 70
     1
102
RTVSPost2010Prop43
 90
        3
102
RTVSPost2010PropOp43
 70
     1
102
RTVSPost2010Prop44ColorIndex
 90
        5
102
RTVSPost2010Prop44ColorRGB
 90
      255
102
RTVSPost2010PropOp44
 70
     1
102
RTVSPost2010Prop45
280
     0
102
RTVSPost2010PropOp45
 70
     1
102
RTVSPost2010Prop46
 90
       50
102
RTVSPost2010PropOp46
 70
     1
102
RTVSPost2010Prop47
 90
       50
102
RTVSPost2010PropOp47
 70
     1
102
RTVSPost2010Prop48
 90
       50
102
RTVSPost2010PropOp48
 70
     1
102
RTVSPost2010Prop49
280
     0
102
RTVSPost2010PropOp49
 70
     1
102
RTVSPost2010Prop50
 90
       50
102
RTVSPost2010PropOp50
 70
     1
102
RTVSPost2010Prop51ColorIndex
 90
      256
102
RTVSPost2010Prop51ColorRGB
 90
-16777216
102
RTVSPost2010PropOp51
 70
     0
102
RTVSPost2010Prop52
140
1.0
102
RTVSPost2010PropOp52
 70
     0
102
RTVSPost2010Prop53
 90
        2
102
RTVSPost2010PropOp53
 70
     1
102
RTVSPost2010Prop54
  1
strokes_ogs.tif
102
RTVSPost2010PropOp54
 70
     1
102
RTVSPost2010Prop55
280
     0
102
RTVSPost2010PropOp55
 70
     1
102
RTVSPost2010Prop56
140
1.0
102
RTVSPost2010PropOp56
 70
     1
102
RTVSPost2010Prop57
140
1.0
102
RTVSPost2010PropOp57
 70
     1
102
RTVSPropertyOp0
 70
     1
102
RTVSPropertyOp1
 70
     1
102
RTVSPropertyOp2
 70
     1
102
RTVSPropertyOp3
 70
     1
102
RTVSPropertyOp4
 70
     1
102
RTVSPropertyOp5
 70
     1
102
RTVSPropertyOp6
 70
     1
102
RTVSPropertyOp7
 70
     1
102
RTVSPropertyOp8
 70
     1
102
RTVSPropertyOp9
 70
     1
102
RTVSPropertyOp10
 70
     1
102
RTVSPropertyOp11
 70
     1
102
RTVSPropertyOp12
 70
     1
102
RTVSPropertyOp13
 70
     1
102
RTVSPropertyOp14
 70
     1
102
RTVSPropertyOp15
 70
     1
102
RTVSPropertyOp16
 70
     1
102
RTVSPropertyOp17
 70
     1
102
RTVSPropertyOp18
 70
     1
102
RTVSPropertyOp19
 70
     1
102
RTVSPropertyOp20
 70
     1
102
RTVSPropertyOp21
 70
     1
102
RTVSPropertyOp22
 70
     1
102
RTVSPropertyOp23
 70
     1
102
RTVSPropertyOp24
 70
     1
102
RTVSPropertyOp25
 70
     1
102
RTVSPropertyOp26
 70
     1
102
RTVSPropertyOp27
 70
     1
102
RTVSPropertyOp28
 70
     1
102
RTVSPropertyOp29
 70
     1
102
RTVSPropertyOp30
 70
     1
102
RTVSPropertyOp31
 70
     1
102
RTVSPropertyOp32
 70
     1
102
RTVSPropertyOp33
 70
     1
102
RTVSPropertyOp34
 70
     1
102
RTVSPropertyOp35
 70
     1
102
RTVSPropertyOp36
 70
     1
102
RTVSPropertyOp37
 70
     1
102
RTVSPropertyOp38
 70
     1
102
RTVSPropertyOp39
 70
     1
102
RTVSPropertyOp40
 70
     1
102
RTVSPropertyOp41
 70
     1
102
RTVSPropertyOp42
 70
     1
102
RTVSPropertyOp43
 70
     1
102
RTVSPropertyOp44
 70
     1
102
RTVSPropertyOp45
 70
     1
102
RTVSPropertyOp46
 70
     1
102
RTVSPropertyOp47
 70
     1
102
RTVSPropertyOp48
 70
     1
102
RTVSPropertyOp49
 70
     1
102
RTVSPropertyOp50
 70
     1
102
RTVSPropertyOp51
 70
     0
102
RTVSPropertyOp52
 70
     0
102
RTVSPropertyOp53
 70
     1
102
RTVSPropertyOp54
 70
     1
102
RTVSPropertyOp55
 70
     1
102
RTVSPropertyOp56
 70
     1
102
RTVSPropertyOp57
 70
     1
102
RTVSPropertyOp58
 70
     1
102
RTVSPropertyOp59
 70
     1
102
RTVSPropertyOp60
 70
     1
102
RTVSPropertyOp61
 70
     1
102
RTVSPropertyOp62
 70
     1
  0
XRECORD
  5
44B
102
{ACAD_REACTORS
330
44A
102
}
330
44A
100
AcDbXrecord
280
     1
102
RTVSPost2010Prop28
280
     0
102
RTVSPost2010PropOp28
 70
     1
102
RTVSPost2010Prop29
280
     1
102
RTVSPost2010PropOp29
 70
     1
102
RTVSPost2010Prop30
280
     1
102
RTVSPost2010PropOp30
 70
     1
102
RTVSPost2010Prop31
280
     0
102
RTVSPost2010PropOp31
 70
     1
102
RTVSPost2010Prop32
280
     0
102
RTVSPost2010PropOp32
 70
     1
102
RTVSPost2010Prop33
280
     0
102
RTVSPost2010PropOp33
 70
     1
102
RTVSPost2010Prop34
280
     0
102
RTVSPost2010PropOp34
 70
     1
102
RTVSPost2010Prop35
280
     0
102
RTVSPost2010PropOp35
 70
     1
102
RTVSPost2010Prop36
280
     0
102
RTVSPost2010PropOp36
 70
     1
102
RTVSPost2010Prop37
 90
       50
102
RTVSPost2010PropOp37
 70
     1
102
RTVSPost2010Prop38
140
0.0
102
RTVSPost2010PropOp38
 70
     1
102
RTVSPost2010Prop39
140
1.0
102
RTVSPost2010PropOp39
 70
     1
102
RTVSPost2010Prop40
 90
        0
102
RTVSPost2010PropOp40
 70
     1
102
RTVSPost2010Prop41ColorIndex
 90
       18
102
RTVSPost2010Prop41ColorRGB
 90
        0
102
RTVSPost2010PropOp41
 70
     1
102
RTVSPost2010Prop42
 90
       50
102
RTVSPost2010PropOp42
 70
     1
102
RTVSPost2010Prop43
 90
        3
102
RTVSPost2010PropOp43
 70
     1
102
RTVSPost2010Prop44ColorIndex
 90
        5
102
RTVSPost2010Prop44ColorRGB
 90
      255
102
RTVSPost2010PropOp44
 70
     1
102
RTVSPost2010Prop45
280
     0
102
RTVSPost2010PropOp45
 70
     1
102
RTVSPost2010Prop46
 90
       50
102
RTVSPost2010PropOp46
 70
     1
102
RTVSPost2010Prop47
 90
       50
102
RTVSPost2010PropOp47
 70
     1
102
RTVSPost2010Prop48
 90
       50
102
RTVSPost2010PropOp48
 70
     1
102
RTVSPost2010Prop49
280
     0
102
RTVSPost2010PropOp49
 70
     1
102
RTVSPost2010Prop50
 90
       50
102
RTVSPost2010PropOp50
 70
     1
102
RTVSPost2010Prop51ColorIndex
 90
      256
102
RTVSPost2010Prop51ColorRGB
 90
-16777216
102
RTVSPost2010PropOp51
 70
     0
102
RTVSPost2010Prop52
140
1.0
102
RTVSPost2010PropOp52
 70
     0
102
RTVSPost2010Prop53
 90
        2
102
RTVSPost2010PropOp53
 70
     1
102
RTVSPost2010Prop54
  1
strokes_ogs.tif
102
RTVSPost2010PropOp54
 70
     1
102
RTVSPost2010Prop55
280
     0
102
RTVSPost2010PropOp55
 70
     1
102
RTVSPost2010Prop56
140
1.0
102
RTVSPost2010PropOp56
 70
     1
102
RTVSPost2010Prop57
140
1.0
102
RTVSPost2010PropOp57
 70
     1
102
RTVSPropertyOp0
 70
     1
102
RTVSPropertyOp1
 70
     1
102
RTVSPropertyOp2
 70
     1
102
RTVSPropertyOp3
 70
     1
102
RTVSPropertyOp4
 70
     1
102
RTVSPropertyOp5
 70
     1
102
RTVSPropertyOp6
 70
     1
102
RTVSPropertyOp7
 70
     1
102
RTVSPropertyOp8
 70
     1
102
RTVSPropertyOp9
 70
     1
102
RTVSPropertyOp10
 70
     1
102
RTVSPropertyOp11
 70
     1
102
RTVSPropertyOp12
 70
     1
102
RTVSPropertyOp13
 70
     1
102
RTVSPropertyOp14
 70
     1
102
RTVSPropertyOp15
 70
     1
102
RTVSPropertyOp16
 70
     1
102
RTVSPropertyOp17
 70
     1
102
RTVSPropertyOp18
 70
     1
102
RTVSPropertyOp19
 70
     1
102
RTVSPropertyOp20
 70
     1
102
RTVSPropertyOp21
 70
     1
102
RTVSPropertyOp22
 70
     1
102
RTVSPropertyOp23
 70
     1
102
RTVSPropertyOp24
 70
     1
102
RTVSPropertyOp25
 70
     1
102
RTVSPropertyOp26
 70
     1
102
RTVSPropertyOp27
 70
     1
102
RTVSPropertyOp28
 70
     1
102
RTVSPropertyOp29
 70
     1
102
RTVSPropertyOp30
 70
     1
102
RTVSPropertyOp31
 70
     1
102
RTVSPropertyOp32
 70
     1
102
RTVSPropertyOp33
 70
     1
102
RTVSPropertyOp34
 70
     1
102
RTVSPropertyOp35
 70
     1
102
RTVSPropertyOp36
 70
     1
102
RTVSPropertyOp37
 70
     1
102
RTVSPropertyOp38
 70
     1
102
RTVSPropertyOp39
 70
     1
102
RTVSPropertyOp40
 70
     1
102
RTVSPropertyOp41
 70
     1
102
RTVSPropertyOp42
 70
     1
102
RTVSPropertyOp43
 70
     1
102
RTVSPropertyOp44
 70
     1
102
RTVSPropertyOp45
 70
     1
102
RTVSPropertyOp46
 70
     1
102
RTVSPropertyOp47
 70
     1
102
RTVSPropertyOp48
 70
     1
102
RTVSPropertyOp49
 70
     1
102
RTVSPropertyOp50
 70
     1
102
RTVSPropertyOp51
 70
     0
102
RTVSPropertyOp52
 70
     0
102
RTVSPropertyOp53
 70
     1
102
RTVSPropertyOp54
 70
     1
102
RTVSPropertyOp55
 70
     1
102
RTVSPropertyOp56
 70
     1
102
RTVSPropertyOp57
 70
     1
102
RTVSPropertyOp58
 70
     1
102
RTVSPropertyOp59
 70
     1
102
RTVSPropertyOp60
 70
     1
102
RTVSPropertyOp61
 70
     1
102
RTVSPropertyOp62
 70
     1
  0
XRECORD
  5
453
102
{ACAD_REACTORS
330
452
102
}
330
452
100
AcDbXrecord
280
     1
102
RTVSPost2010Prop28
280
     0
102
RTVSPost2010PropOp28
 70
     1
102
RTVSPost2010Prop29
280
     1
102
RTVSPost2010PropOp29
 70
     1
102
RTVSPost2010Prop30
280
     1
102
RTVSPost2010PropOp30
 70
     1
102
RTVSPost2010Prop31
280
     0
102
RTVSPost2010PropOp31
 70
     1
102
RTVSPost2010Prop32
280
     0
102
RTVSPost2010PropOp32
 70
     1
102
RTVSPost2010Prop33
280
     0
102
RTVSPost2010PropOp33
 70
     1
102
RTVSPost2010Prop34
280
     0
102
RTVSPost2010PropOp34
 70
     1
102
RTVSPost2010Prop35
280
     0
102
RTVSPost2010PropOp35
 70
     1
102
RTVSPost2010Prop36
280
     0
102
RTVSPost2010PropOp36
 70
     1
102
RTVSPost2010Prop37
 90
       50
102
RTVSPost2010PropOp37
 70
     1
102
RTVSPost2010Prop38
140
0.0
102
RTVSPost2010PropOp38
 70
     1
102
RTVSPost2010Prop39
140
1.0
102
RTVSPost2010PropOp39
 70
     1
102
RTVSPost2010Prop40
 90
        0
102
RTVSPost2010PropOp40
 70
     1
102
RTVSPost2010Prop41ColorIndex
 90
       18
102
RTVSPost2010Prop41ColorRGB
 90
        0
102
RTVSPost2010PropOp41
 70
     1
102
RTVSPost2010Prop42
 90
       50
102
RTVSPost2010PropOp42
 70
     1
102
RTVSPost2010Prop43
 90
        3
102
RTVSPost2010PropOp43
 70
     1
102
RTVSPost2010Prop44ColorIndex
 90
        5
102
RTVSPost2010Prop44ColorRGB
 90
      255
102
RTVSPost2010PropOp44
 70
     1
102
RTVSPost2010Prop45
280
     0
102
RTVSPost2010PropOp45
 70
     1
102
RTVSPost2010Prop46
 90
       50
102
RTVSPost2010PropOp46
 70
     1
102
RTVSPost2010Prop47
 90
       50
102
RTVSPost2010PropOp47
 70
     1
102
RTVSPost2010Prop48
 90
       50
102
RTVSPost2010PropOp48
 70
     1
102
RTVSPost2010Prop49
280
     0
102
RTVSPost2010PropOp49
 70
     1
102
RTVSPost2010Prop50
 90
       50
102
RTVSPost2010PropOp50
 70
     1
102
RTVSPost2010Prop51ColorIndex
 90
      256
102
RTVSPost2010Prop51ColorRGB
 90
-16777216
102
RTVSPost2010PropOp51
 70
     0
102
RTVSPost2010Prop52
140
1.0
102
RTVSPost2010PropOp52
 70
     0
102
RTVSPost2010Prop53
 90
        2
102
RTVSPost2010PropOp53
 70
     1
102
RTVSPost2010Prop54
  1
strokes_ogs.tif
102
RTVSPost2010PropOp54
 70
     1
102
RTVSPost2010Prop55
280
     0
102
RTVSPost2010PropOp55
 70
     1
102
RTVSPost2010Prop56
140
1.0
102
RTVSPost2010PropOp56
 70
     1
102
RTVSPost2010Prop57
140
1.0
102
RTVSPost2010PropOp57
 70
     1
102
RTVSPropertyOp0
 70
     1
102
RTVSPropertyOp1
 70
     1
102
RTVSPropertyOp2
 70
     1
102
RTVSPropertyOp3
 70
     1
102
RTVSPropertyOp4
 70
     1
102
RTVSPropertyOp5
 70
     1
102
RTVSPropertyOp6
 70
     1
102
RTVSPropertyOp7
 70
     1
102
RTVSPropertyOp8
 70
     1
102
RTVSPropertyOp9
 70
     1
102
RTVSPropertyOp10
 70
     1
102
RTVSPropertyOp11
 70
     1
102
RTVSPropertyOp12
 70
     1
102
RTVSPropertyOp13
 70
     1
102
RTVSPropertyOp14
 70
     1
102
RTVSPropertyOp15
 70
     1
102
RTVSPropertyOp16
 70
     1
102
RTVSPropertyOp17
 70
     1
102
RTVSPropertyOp18
 70
     1
102
RTVSPropertyOp19
 70
     1
102
RTVSPropertyOp20
 70
     1
102
RTVSPropertyOp21
 70
     1
102
RTVSPropertyOp22
 70
     1
102
RTVSPropertyOp23
 70
     1
102
RTVSPropertyOp24
 70
     1
102
RTVSPropertyOp25
 70
     1
102
RTVSPropertyOp26
 70
     1
102
RTVSPropertyOp27
 70
     1
102
RTVSPropertyOp28
 70
     1
102
RTVSPropertyOp29
 70
     1
102
RTVSPropertyOp30
 70
     1
102
RTVSPropertyOp31
 70
     1
102
RTVSPropertyOp32
 70
     1
102
RTVSPropertyOp33
 70
     1
102
RTVSPropertyOp34
 70
     1
102
RTVSPropertyOp35
 70
     1
102
RTVSPropertyOp36
 70
     1
102
RTVSPropertyOp37
 70
     1
102
RTVSPropertyOp38
 70
     1
102
RTVSPropertyOp39
 70
     1
102
RTVSPropertyOp40
 70
     1
102
RTVSPropertyOp41
 70
     1
102
RTVSPropertyOp42
 70
     1
102
RTVSPropertyOp43
 70
     1
102
RTVSPropertyOp44
 70
     1
102
RTVSPropertyOp45
 70
     1
102
RTVSPropertyOp46
 70
     1
102
RTVSPropertyOp47
 70
     1
102
RTVSPropertyOp48
 70
     1
102
RTVSPropertyOp49
 70
     1
102
RTVSPropertyOp50
 70
     1
102
RTVSPropertyOp51
 70
     0
102
RTVSPropertyOp52
 70
     0
102
RTVSPropertyOp53
 70
     1
102
RTVSPropertyOp54
 70
     1
102
RTVSPropertyOp55
 70
     1
102
RTVSPropertyOp56
 70
     1
102
RTVSPropertyOp57
 70
     1
102
RTVSPropertyOp58
 70
     1
102
RTVSPropertyOp59
 70
     1
102
RTVSPropertyOp60
 70
     1
102
RTVSPropertyOp61
 70
     1
102
RTVSPropertyOp62
 70
     1
  0
XRECORD
  5
46F
102
{ACAD_REACTORS
330
46E
102
}
330
46E
100
AcDbXrecord
280
     1
102
RTVSPost2010Prop28
280
     0
102
RTVSPost2010PropOp28
 70
     1
102
RTVSPost2010Prop29
280
     1
102
RTVSPost2010PropOp29
 70
     1
102
RTVSPost2010Prop30
280
     1
102
RTVSPost2010PropOp30
 70
     1
102
RTVSPost2010Prop31
280
     0
102
RTVSPost2010PropOp31
 70
     1
102
RTVSPost2010Prop32
280
     0
102
RTVSPost2010PropOp32
 70
     1
102
RTVSPost2010Prop33
280
     0
102
RTVSPost2010PropOp33
 70
     1
102
RTVSPost2010Prop34
280
     0
102
RTVSPost2010PropOp34
 70
     1
102
RTVSPost2010Prop35
280
     0
102
RTVSPost2010PropOp35
 70
     1
102
RTVSPost2010Prop36
280
     0
102
RTVSPost2010PropOp36
 70
     1
102
RTVSPost2010Prop37
 90
       50
102
RTVSPost2010PropOp37
 70
     0
102
RTVSPost2010Prop38
140
0.0
102
RTVSPost2010PropOp38
 70
     0
102
RTVSPost2010Prop39
140
1.0
102
RTVSPost2010PropOp39
 70
     0
102
RTVSPost2010Prop40
 90
        0
102
RTVSPost2010PropOp40
 70
     0
102
RTVSPost2010Prop41ColorIndex
 90
       18
102
RTVSPost2010Prop41ColorRGB
 90
        0
102
RTVSPost2010PropOp41
 70
     0
102
RTVSPost2010Prop42
 90
       50
102
RTVSPost2010PropOp42
 70
     0
102
RTVSPost2010Prop43
 90
        3
102
RTVSPost2010PropOp43
 70
     0
102
RTVSPost2010Prop44ColorIndex
 90
        5
102
RTVSPost2010Prop44ColorRGB
 90
      255
102
RTVSPost2010PropOp44
 70
     0
102
RTVSPost2010Prop45
280
     0
102
RTVSPost2010PropOp45
 70
     1
102
RTVSPost2010Prop46
 90
       50
102
RTVSPost2010PropOp46
 70
     0
102
RTVSPost2010Prop47
 90
       50
102
RTVSPost2010PropOp47
 70
     0
102
RTVSPost2010Prop48
 90
       50
102
RTVSPost2010PropOp48
 70
     0
102
RTVSPost2010Prop49
280
     0
102
RTVSPost2010PropOp49
 70
     1
102
RTVSPost2010Prop50
 90
       50
102
RTVSPost2010PropOp50
 70
     0
102
RTVSPost2010Prop51ColorIndex
 90
      256
102
RTVSPost2010Prop51ColorRGB
 90
-16777216
102
RTVSPost2010PropOp51
 70
     0
102
RTVSPost2010Prop52
140
1.0
102
RTVSPost2010PropOp52
 70
     0
102
RTVSPost2010Prop53
 90
        2
102
RTVSPost2010PropOp53
 70
     0
102
RTVSPost2010Prop54
  1
strokes_ogs.tif
102
RTVSPost2010PropOp54
 70
     0
102
RTVSPost2010Prop55
280
     0
102
RTVSPost2010PropOp55
 70
     1
102
RTVSPost2010Prop56
140
1.0
102
RTVSPost2010PropOp56
 70
     0
102
RTVSPost2010Prop57
140
1.0
102
RTVSPost2010PropOp57
 70
     0
102
RTVSPropertyOp0
 70
     0
102
RTVSPropertyOp1
 70
     0
102
RTVSPropertyOp2
 70
     0
102
RTVSPropertyOp3
 70
     0
102
RTVSPropertyOp4
 70
     0
102
RTVSPropertyOp5
 70
     0
102
RTVSPropertyOp6
 70
     0
102
RTVSPropertyOp7
 70
     0
102
RTVSPropertyOp8
 70
     0
102
RTVSPropertyOp9
 70
     0
102
RTVSPropertyOp10
 70
     0
102
RTVSPropertyOp11
 70
     0
102
RTVSPropertyOp12
 70
     0
102
RTVSPropertyOp13
 70
     0
102
RTVSPropertyOp14
 70
     2
102
RTVSPropertyOp15
 70
     0
102
RTVSPropertyOp16
 70
     0
102
RTVSPropertyOp17
 70
     0
102
RTVSPropertyOp18
 70
     0
102
RTVSPropertyOp19
 70
     0
102
RTVSPropertyOp20
 70
     0
102
RTVSPropertyOp21
 70
     0
102
RTVSPropertyOp22
 70
     0
102
RTVSPropertyOp23
 70
     0
102
RTVSPropertyOp24
 70
     0
102
RTVSPropertyOp25
 70
     0
102
RTVSPropertyOp26
 70
     0
102
RTVSPropertyOp27
 70
     0
102
RTVSPropertyOp28
 70
     1
102
RTVSPropertyOp29
 70
     1
102
RTVSPropertyOp30
 70
     1
102
RTVSPropertyOp31
 70
     1
102
RTVSPropertyOp32
 70
     1
102
RTVSPropertyOp33
 70
     1
102
RTVSPropertyOp34
 70
     1
102
RTVSPropertyOp35
 70
     1
102
RTVSPropertyOp36
 70
     1
102
RTVSPropertyOp37
 70
     0
102
RTVSPropertyOp38
 70
     0
102
RTVSPropertyOp39
 70
     0
102
RTVSPropertyOp40
 70
     0
102
RTVSPropertyOp41
 70
     0
102
RTVSPropertyOp42
 70
     0
102
RTVSPropertyOp43
 70
     0
102
RTVSPropertyOp44
 70
     0
102
RTVSPropertyOp45
 70
     1
102
RTVSPropertyOp46
 70
     0
102
RTVSPropertyOp47
 70
     0
102
RTVSPropertyOp48
 70
     0
102
RTVSPropertyOp49
 70
     1
102
RTVSPropertyOp50
 70
     0
102
RTVSPropertyOp51
 70
     0
102
RTVSPropertyOp52
 70
     0
102
RTVSPropertyOp53
 70
     0
102
RTVSPropertyOp54
 70
     0
102
RTVSPropertyOp55
 70
     1
102
RTVSPropertyOp56
 70
     0
102
RTVSPropertyOp57
 70
     0
102
RTVSPropertyOp58
 70
     0
102
RTVSPropertyOp59
 70
     0
102
RTVSPropertyOp60
 70
     0
102
RTVSPropertyOp61
 70
     0
102
RTVSPropertyOp62
 70
     0
  0
XRECORD
  5
45F
102
{ACAD_REACTORS
330
45E
102
}
330
45E
100
AcDbXrecord
280
     1
102
RTVSPost2010Prop28
280
     0
102
RTVSPost2010PropOp28
 70
     1
102
RTVSPost2010Prop29
280
     1
102
RTVSPost2010PropOp29
 70
     1
102
RTVSPost2010Prop30
280
     1
102
RTVSPost2010PropOp30
 70
     1
102
RTVSPost2010Prop31
280
     0
102
RTVSPost2010PropOp31
 70
     1
102
RTVSPost2010Prop32
280
     0
102
RTVSPost2010PropOp32
 70
     1
102
RTVSPost2010Prop33
280
     0
102
RTVSPost2010PropOp33
 70
     1
102
RTVSPost2010Prop34
280
     0
102
RTVSPost2010PropOp34
 70
     1
102
RTVSPost2010Prop35
280
     0
102
RTVSPost2010PropOp35
 70
     1
102
RTVSPost2010Prop36
280
     0
102
RTVSPost2010PropOp36
 70
     1
102
RTVSPost2010Prop37
 90
       50
102
RTVSPost2010PropOp37
 70
     1
102
RTVSPost2010Prop38
140
0.0
102
RTVSPost2010PropOp38
 70
     1
102
RTVSPost2010Prop39
140
1.0
102
RTVSPost2010PropOp39
 70
     1
102
RTVSPost2010Prop40
 90
        0
102
RTVSPost2010PropOp40
 70
     1
102
RTVSPost2010Prop41ColorIndex
 90
       18
102
RTVSPost2010Prop41ColorRGB
 90
        0
102
RTVSPost2010PropOp41
 70
     1
102
RTVSPost2010Prop42
 90
       50
102
RTVSPost2010PropOp42
 70
     1
102
RTVSPost2010Prop43
 90
        3
102
RTVSPost2010PropOp43
 70
     1
102
RTVSPost2010Prop44ColorIndex
 90
        5
102
RTVSPost2010Prop44ColorRGB
 90
      255
102
RTVSPost2010PropOp44
 70
     1
102
RTVSPost2010Prop45
280
     0
102
RTVSPost2010PropOp45
 70
     1
102
RTVSPost2010Prop46
 90
       50
102
RTVSPost2010PropOp46
 70
     1
102
RTVSPost2010Prop47
 90
       50
102
RTVSPost2010PropOp47
 70
     1
102
RTVSPost2010Prop48
 90
       50
102
RTVSPost2010PropOp48
 70
     1
102
RTVSPost2010Prop49
280
     0
102
RTVSPost2010PropOp49
 70
     1
102
RTVSPost2010Prop50
 90
       50
102
RTVSPost2010PropOp50
 70
     1
102
RTVSPost2010Prop51ColorIndex
 90
      256
102
RTVSPost2010Prop51ColorRGB
 90
-16777216
102
RTVSPost2010PropOp51
 70
     0
102
RTVSPost2010Prop52
140
1.0
102
RTVSPost2010PropOp52
 70
     0
102
RTVSPost2010Prop53
 90
        2
102
RTVSPost2010PropOp53
 70
     1
102
RTVSPost2010Prop54
  1
strokes_ogs.tif
102
RTVSPost2010PropOp54
 70
     1
102
RTVSPost2010Prop55
280
     0
102
RTVSPost2010PropOp55
 70
     1
102
RTVSPost2010Prop56
140
1.0
102
RTVSPost2010PropOp56
 70
     1
102
RTVSPost2010Prop57
140
1.0
102
RTVSPost2010PropOp57
 70
     1
102
RTVSPropertyOp0
 70
     1
102
RTVSPropertyOp1
 70
     1
102
RTVSPropertyOp2
 70
     1
102
RTVSPropertyOp3
 70
     1
102
RTVSPropertyOp4
 70
     1
102
RTVSPropertyOp5
 70
     1
102
RTVSPropertyOp6
 70
     1
102
RTVSPropertyOp7
 70
     1
102
RTVSPropertyOp8
 70
     1
102
RTVSPropertyOp9
 70
     1
102
RTVSPropertyOp10
 70
     1
102
RTVSPropertyOp11
 70
     1
102
RTVSPropertyOp12
 70
     1
102
RTVSPropertyOp13
 70
     1
102
RTVSPropertyOp14
 70
     1
102
RTVSPropertyOp15
 70
     1
102
RTVSPropertyOp16
 70
     1
102
RTVSPropertyOp17
 70
     1
102
RTVSPropertyOp18
 70
     1
102
RTVSPropertyOp19
 70
     1
102
RTVSPropertyOp20
 70
     1
102
RTVSPropertyOp21
 70
     1
102
RTVSPropertyOp22
 70
     1
102
RTVSPropertyOp23
 70
     1
102
RTVSPropertyOp24
 70
     1
102
RTVSPropertyOp25
 70
     1
102
RTVSPropertyOp26
 70
     1
102
RTVSPropertyOp27
 70
     1
102
RTVSPropertyOp28
 70
     1
102
RTVSPropertyOp29
 70
     1
102
RTVSPropertyOp30
 70
     1
102
RTVSPropertyOp31
 70
     1
102
RTVSPropertyOp32
 70
     1
102
RTVSPropertyOp33
 70
     1
102
RTVSPropertyOp34
 70
     1
102
RTVSPropertyOp35
 70
     1
102
RTVSPropertyOp36
 70
     1
102
RTVSPropertyOp37
 70
     1
102
RTVSPropertyOp38
 70
     1
102
RTVSPropertyOp39
 70
     1
102
RTVSPropertyOp40
 70
     1
102
RTVSPropertyOp41
 70
     1
102
RTVSPropertyOp42
 70
     1
102
RTVSPropertyOp43
 70
     1
102
RTVSPropertyOp44
 70
     1
102
RTVSPropertyOp45
 70
     1
102
RTVSPropertyOp46
 70
     1
102
RTVSPropertyOp47
 70
     1
102
RTVSPropertyOp48
 70
     1
102
RTVSPropertyOp49
 70
     1
102
RTVSPropertyOp50
 70
     1
102
RTVSPropertyOp51
 70
     0
102
RTVSPropertyOp52
 70
     0
102
RTVSPropertyOp53
 70
     1
102
RTVSPropertyOp54
 70
     1
102
RTVSPropertyOp55
 70
     1
102
RTVSPropertyOp56
 70
     1
102
RTVSPropertyOp57
 70
     1
102
RTVSPropertyOp58
 70
     1
102
RTVSPropertyOp59
 70
     1
102
RTVSPropertyOp60
 70
     1
102
RTVSPropertyOp61
 70
     1
102
RTVSPropertyOp62
 70
     1
  0
XRECORD
  5
471
102
{ACAD_REACTORS
330
470
102
}
330
470
100
AcDbXrecord
280
     1
102
RTVSPost2010Prop28
280
     0
102
RTVSPost2010PropOp28
 70
     1
102
RTVSPost2010Prop29
280
     1
102
RTVSPost2010PropOp29
 70
     1
102
RTVSPost2010Prop30
280
     1
102
RTVSPost2010PropOp30
 70
     1
102
RTVSPost2010Prop31
280
     0
102
RTVSPost2010PropOp31
 70
     1
102
RTVSPost2010Prop32
280
     0
102
RTVSPost2010PropOp32
 70
     1
102
RTVSPost2010Prop33
280
     0
102
RTVSPost2010PropOp33
 70
     1
102
RTVSPost2010Prop34
280
     0
102
RTVSPost2010PropOp34
 70
     1
102
RTVSPost2010Prop35
280
     0
102
RTVSPost2010PropOp35
 70
     1
102
RTVSPost2010Prop36
280
     0
102
RTVSPost2010PropOp36
 70
     1
102
RTVSPost2010Prop37
 90
       50
102
RTVSPost2010PropOp37
 70
     0
102
RTVSPost2010Prop38
140
0.0
102
RTVSPost2010PropOp38
 70
     0
102
RTVSPost2010Prop39
140
1.0
102
RTVSPost2010PropOp39
 70
     0
102
RTVSPost2010Prop40
 90
        0
102
RTVSPost2010PropOp40
 70
     0
102
RTVSPost2010Prop41ColorIndex
 90
       18
102
RTVSPost2010Prop41ColorRGB
 90
        0
102
RTVSPost2010PropOp41
 70
     0
102
RTVSPost2010Prop42
 90
       50
102
RTVSPost2010PropOp42
 70
     0
102
RTVSPost2010Prop43
 90
        3
102
RTVSPost2010PropOp43
 70
     0
102
RTVSPost2010Prop44ColorIndex
 90
        5
102
RTVSPost2010Prop44ColorRGB
 90
      255
102
RTVSPost2010PropOp44
 70
     0
102
RTVSPost2010Prop45
280
     0
102
RTVSPost2010PropOp45
 70
     1
102
RTVSPost2010Prop46
 90
       50
102
RTVSPost2010PropOp46
 70
     0
102
RTVSPost2010Prop47
 90
       50
102
RTVSPost2010PropOp47
 70
     0
102
RTVSPost2010Prop48
 90
       50
102
RTVSPost2010PropOp48
 70
     0
102
RTVSPost2010Prop49
280
     0
102
RTVSPost2010PropOp49
 70
     1
102
RTVSPost2010Prop50
 90
       50
102
RTVSPost2010PropOp50
 70
     0
102
RTVSPost2010Prop51ColorIndex
 90
      256
102
RTVSPost2010Prop51ColorRGB
 90
-16777216
102
RTVSPost2010PropOp51
 70
     0
102
RTVSPost2010Prop52
140
1.0
102
RTVSPost2010PropOp52
 70
     0
102
RTVSPost2010Prop53
 90
        2
102
RTVSPost2010PropOp53
 70
     0
102
RTVSPost2010Prop54
  1
strokes_ogs.tif
102
RTVSPost2010PropOp54
 70
     0
102
RTVSPost2010Prop55
280
     0
102
RTVSPost2010PropOp55
 70
     1
102
RTVSPost2010Prop56
140
1.0
102
RTVSPost2010PropOp56
 70
     0
102
RTVSPost2010Prop57
140
1.0
102
RTVSPost2010PropOp57
 70
     0
102
RTVSPropertyOp0
 70
     0
102
RTVSPropertyOp1
 70
     0
102
RTVSPropertyOp2
 70
     0
102
RTVSPropertyOp3
 70
     0
102
RTVSPropertyOp4
 70
     0
102
RTVSPropertyOp5
 70
     0
102
RTVSPropertyOp6
 70
     0
102
RTVSPropertyOp7
 70
     0
102
RTVSPropertyOp8
 70
     0
102
RTVSPropertyOp9
 70
     0
102
RTVSPropertyOp10
 70
     0
102
RTVSPropertyOp11
 70
     0
102
RTVSPropertyOp12
 70
     0
102
RTVSPropertyOp13
 70
     0
102
RTVSPropertyOp14
 70
     2
102
RTVSPropertyOp15
 70
     0
102
RTVSPropertyOp16
 70
     0
102
RTVSPropertyOp17
 70
     0
102
RTVSPropertyOp18
 70
     0
102
RTVSPropertyOp19
 70
     0
102
RTVSPropertyOp20
 70
     0
102
RTVSPropertyOp21
 70
     0
102
RTVSPropertyOp22
 70
     0
102
RTVSPropertyOp23
 70
     0
102
RTVSPropertyOp24
 70
     0
102
RTVSPropertyOp25
 70
     0
102
RTVSPropertyOp26
 70
     0
102
RTVSPropertyOp27
 70
     0
102
RTVSPropertyOp28
 70
     1
102
RTVSPropertyOp29
 70
     1
102
RTVSPropertyOp30
 70
     1
102
RTVSPropertyOp31
 70
     1
102
RTVSPropertyOp32
 70
     1
102
RTVSPropertyOp33
 70
     1
102
RTVSPropertyOp34
 70
     1
102
RTVSPropertyOp35
 70
     1
102
RTVSPropertyOp36
 70
     1
102
RTVSPropertyOp37
 70
     0
102
RTVSPropertyOp38
 70
     0
102
RTVSPropertyOp39
 70
     0
102
RTVSPropertyOp40
 70
     0
102
RTVSPropertyOp41
 70
     0
102
RTVSPropertyOp42
 70
     0
102
RTVSPropertyOp43
 70
     0
102
RTVSPropertyOp44
 70
     0
102
RTVSPropertyOp45
 70
     1
102
RTVSPropertyOp46
 70
     0
102
RTVSPropertyOp47
 70
     0
102
RTVSPropertyOp48
 70
     0
102
RTVSPropertyOp49
 70
     1
102
RTVSPropertyOp50
 70
     0
102
RTVSPropertyOp51
 70
     0
102
RTVSPropertyOp52
 70
     0
102
RTVSPropertyOp53
 70
     0
102
RTVSPropertyOp54
 70
     0
102
RTVSPropertyOp55
 70
     1
102
RTVSPropertyOp56
 70
     0
102
RTVSPropertyOp57
 70
     0
102
RTVSPropertyOp58
 70
     0
102
RTVSPropertyOp59
 70
     0
102
RTVSPropertyOp60
 70
     0
102
RTVSPropertyOp61
 70
     0
102
RTVSPropertyOp62
 70
     0
  0
XRECORD
  5
457
102
{ACAD_REACTORS
330
456
102
}
330
456
100
AcDbXrecord
280
     1
102
RTVSPost2010Prop28
280
     0
102
RTVSPost2010PropOp28
 70
     1
102
RTVSPost2010Prop29
280
     1
102
RTVSPost2010PropOp29
 70
     1
102
RTVSPost2010Prop30
280
     1
102
RTVSPost2010PropOp30
 70
     1
102
RTVSPost2010Prop31
280
     0
102
RTVSPost2010PropOp31
 70
     1
102
RTVSPost2010Prop32
280
     0
102
RTVSPost2010PropOp32
 70
     1
102
RTVSPost2010Prop33
280
     0
102
RTVSPost2010PropOp33
 70
     1
102
RTVSPost2010Prop34
280
     0
102
RTVSPost2010PropOp34
 70
     1
102
RTVSPost2010Prop35
280
     0
102
RTVSPost2010PropOp35
 70
     1
102
RTVSPost2010Prop36
280
     0
102
RTVSPost2010PropOp36
 70
     1
102
RTVSPost2010Prop37
 90
       50
102
RTVSPost2010PropOp37
 70
     1
102
RTVSPost2010Prop38
140
0.0
102
RTVSPost2010PropOp38
 70
     1
102
RTVSPost2010Prop39
140
1.0
102
RTVSPost2010PropOp39
 70
     1
102
RTVSPost2010Prop40
 90
        0
102
RTVSPost2010PropOp40
 70
     1
102
RTVSPost2010Prop41ColorIndex
 90
       18
102
RTVSPost2010Prop41ColorRGB
 90
        0
102
RTVSPost2010PropOp41
 70
     1
102
RTVSPost2010Prop42
 90
       50
102
RTVSPost2010PropOp42
 70
     1
102
RTVSPost2010Prop43
 90
        3
102
RTVSPost2010PropOp43
 70
     1
102
RTVSPost2010Prop44ColorIndex
 90
        5
102
RTVSPost2010Prop44ColorRGB
 90
      255
102
RTVSPost2010PropOp44
 70
     1
102
RTVSPost2010Prop45
280
     0
102
RTVSPost2010PropOp45
 70
     1
102
RTVSPost2010Prop46
 90
       50
102
RTVSPost2010PropOp46
 70
     1
102
RTVSPost2010Prop47
 90
       50
102
RTVSPost2010PropOp47
 70
     1
102
RTVSPost2010Prop48
 90
       50
102
RTVSPost2010PropOp48
 70
     1
102
RTVSPost2010Prop49
280
     0
102
RTVSPost2010PropOp49
 70
     1
102
RTVSPost2010Prop50
 90
       50
102
RTVSPost2010PropOp50
 70
     1
102
RTVSPost2010Prop51ColorIndex
 90
      256
102
RTVSPost2010Prop51ColorRGB
 90
-16777216
102
RTVSPost2010PropOp51
 70
     0
102
RTVSPost2010Prop52
140
1.0
102
RTVSPost2010PropOp52
 70
     0
102
RTVSPost2010Prop53
 90
        2
102
RTVSPost2010PropOp53
 70
     1
102
RTVSPost2010Prop54
  1
strokes_ogs.tif
102
RTVSPost2010PropOp54
 70
     1
102
RTVSPost2010Prop55
280
     0
102
RTVSPost2010PropOp55
 70
     1
102
RTVSPost2010Prop56
140
1.0
102
RTVSPost2010PropOp56
 70
     1
102
RTVSPost2010Prop57
140
1.0
102
RTVSPost2010PropOp57
 70
     1
102
RTVSPropertyOp0
 70
     1
102
RTVSPropertyOp1
 70
     1
102
RTVSPropertyOp2
 70
     1
102
RTVSPropertyOp3
 70
     1
102
RTVSPropertyOp4
 70
     1
102
RTVSPropertyOp5
 70
     1
102
RTVSPropertyOp6
 70
     1
102
RTVSPropertyOp7
 70
     1
102
RTVSPropertyOp8
 70
     1
102
RTVSPropertyOp9
 70
     1
102
RTVSPropertyOp10
 70
     1
102
RTVSPropertyOp11
 70
     1
102
RTVSPropertyOp12
 70
     1
102
RTVSPropertyOp13
 70
     1
102
RTVSPropertyOp14
 70
     1
102
RTVSPropertyOp15
 70
     1
102
RTVSPropertyOp16
 70
     1
102
RTVSPropertyOp17
 70
     1
102
RTVSPropertyOp18
 70
     1
102
RTVSPropertyOp19
 70
     1
102
RTVSPropertyOp20
 70
     1
102
RTVSPropertyOp21
 70
     1
102
RTVSPropertyOp22
 70
     1
102
RTVSPropertyOp23
 70
     1
102
RTVSPropertyOp24
 70
     1
102
RTVSPropertyOp25
 70
     1
102
RTVSPropertyOp26
 70
     1
102
RTVSPropertyOp27
 70
     1
102
RTVSPropertyOp28
 70
     1
102
RTVSPropertyOp29
 70
     1
102
RTVSPropertyOp30
 70
     1
102
RTVSPropertyOp31
 70
     1
102
RTVSPropertyOp32
 70
     1
102
RTVSPropertyOp33
 70
     1
102
RTVSPropertyOp34
 70
     1
102
RTVSPropertyOp35
 70
     1
102
RTVSPropertyOp36
 70
     1
102
RTVSPropertyOp37
 70
     1
102
RTVSPropertyOp38
 70
     1
102
RTVSPropertyOp39
 70
     1
102
RTVSPropertyOp40
 70
     1
102
RTVSPropertyOp41
 70
     1
102
RTVSPropertyOp42
 70
     1
102
RTVSPropertyOp43
 70
     1
102
RTVSPropertyOp44
 70
     1
102
RTVSPropertyOp45
 70
     1
102
RTVSPropertyOp46
 70
     1
102
RTVSPropertyOp47
 70
     1
102
RTVSPropertyOp48
 70
     1
102
RTVSPropertyOp49
 70
     1
102
RTVSPropertyOp50
 70
     1
102
RTVSPropertyOp51
 70
     0
102
RTVSPropertyOp52
 70
     0
102
RTVSPropertyOp53
 70
     1
102
RTVSPropertyOp54
 70
     1
102
RTVSPropertyOp55
 70
     1
102
RTVSPropertyOp56
 70
     1
102
RTVSPropertyOp57
 70
     1
102
RTVSPropertyOp58
 70
     1
102
RTVSPropertyOp59
 70
     1
102
RTVSPropertyOp60
 70
     1
102
RTVSPropertyOp61
 70
     1
102
RTVSPropertyOp62
 70
     1
  0
XRECORD
  5
46D
102
{ACAD_REACTORS
330
46C
102
}
330
46C
100
AcDbXrecord
280
     1
102
RTVSPost2010Prop28
280
     0
102
RTVSPost2010PropOp28
 70
     1
102
RTVSPost2010Prop29
280
     1
102
RTVSPost2010PropOp29
 70
     1
102
RTVSPost2010Prop30
280
     1
102
RTVSPost2010PropOp30
 70
     1
102
RTVSPost2010Prop31
280
     0
102
RTVSPost2010PropOp31
 70
     1
102
RTVSPost2010Prop32
280
     0
102
RTVSPost2010PropOp32
 70
     1
102
RTVSPost2010Prop33
280
     0
102
RTVSPost2010PropOp33
 70
     1
102
RTVSPost2010Prop34
280
     0
102
RTVSPost2010PropOp34
 70
     1
102
RTVSPost2010Prop35
280
     0
102
RTVSPost2010PropOp35
 70
     1
102
RTVSPost2010Prop36
280
     0
102
RTVSPost2010PropOp36
 70
     1
102
RTVSPost2010Prop37
 90
       50
102
RTVSPost2010PropOp37
 70
     1
102
RTVSPost2010Prop38
140
0.0
102
RTVSPost2010PropOp38
 70
     1
102
RTVSPost2010Prop39
140
1.0
102
RTVSPost2010PropOp39
 70
     1
102
RTVSPost2010Prop40
 90
        0
102
RTVSPost2010PropOp40
 70
     1
102
RTVSPost2010Prop41ColorIndex
 90
       18
102
RTVSPost2010Prop41ColorRGB
 90
        0
102
RTVSPost2010PropOp41
 70
     1
102
RTVSPost2010Prop42
 90
       50
102
RTVSPost2010PropOp42
 70
     1
102
RTVSPost2010Prop43
 90
        3
102
RTVSPost2010PropOp43
 70
     1
102
RTVSPost2010Prop44ColorIndex
 90
        5
102
RTVSPost2010Prop44ColorRGB
 90
      255
102
RTVSPost2010PropOp44
 70
     1
102
RTVSPost2010Prop45
280
     0
102
RTVSPost2010PropOp45
 70
     1
102
RTVSPost2010Prop46
 90
       50
102
RTVSPost2010PropOp46
 70
     1
102
RTVSPost2010Prop47
 90
       50
102
RTVSPost2010PropOp47
 70
     1
102
RTVSPost2010Prop48
 90
       50
102
RTVSPost2010PropOp48
 70
     1
102
RTVSPost2010Prop49
280
     0
102
RTVSPost2010PropOp49
 70
     1
102
RTVSPost2010Prop50
 90
       50
102
RTVSPost2010PropOp50
 70
     1
102
RTVSPost2010Prop51ColorIndex
 90
      256
102
RTVSPost2010Prop51ColorRGB
 90
-16777216
102
RTVSPost2010PropOp51
 70
     0
102
RTVSPost2010Prop52
140
1.0
102
RTVSPost2010PropOp52
 70
     0
102
RTVSPost2010Prop53
 90
        2
102
RTVSPost2010PropOp53
 70
     1
102
RTVSPost2010Prop54
  1
strokes_ogs.tif
102
RTVSPost2010PropOp54
 70
     1
102
RTVSPost2010Prop55
280
     0
102
RTVSPost2010PropOp55
 70
     1
102
RTVSPost2010Prop56
140
1.0
102
RTVSPost2010PropOp56
 70
     1
102
RTVSPost2010Prop57
140
1.0
102
RTVSPost2010PropOp57
 70
     1
102
RTVSPropertyOp0
 70
     1
102
RTVSPropertyOp1
 70
     1
102
RTVSPropertyOp2
 70
     1
102
RTVSPropertyOp3
 70
     1
102
RTVSPropertyOp4
 70
     1
102
RTVSPropertyOp5
 70
     1
102
RTVSPropertyOp6
 70
     1
102
RTVSPropertyOp7
 70
     1
102
RTVSPropertyOp8
 70
     1
102
RTVSPropertyOp9
 70
     1
102
RTVSPropertyOp10
 70
     1
102
RTVSPropertyOp11
 70
     1
102
RTVSPropertyOp12
 70
     1
102
RTVSPropertyOp13
 70
     1
102
RTVSPropertyOp14
 70
     1
102
RTVSPropertyOp15
 70
     1
102
RTVSPropertyOp16
 70
     1
102
RTVSPropertyOp17
 70
     1
102
RTVSPropertyOp18
 70
     1
102
RTVSPropertyOp19
 70
     1
102
RTVSPropertyOp20
 70
     1
102
RTVSPropertyOp21
 70
     1
102
RTVSPropertyOp22
 70
     1
102
RTVSPropertyOp23
 70
     1
102
RTVSPropertyOp24
 70
     1
102
RTVSPropertyOp25
 70
     1
102
RTVSPropertyOp26
 70
     1
102
RTVSPropertyOp27
 70
     1
102
RTVSPropertyOp28
 70
     1
102
RTVSPropertyOp29
 70
     1
102
RTVSPropertyOp30
 70
     1
102
RTVSPropertyOp31
 70
     1
102
RTVSPropertyOp32
 70
     1
102
RTVSPropertyOp33
 70
     1
102
RTVSPropertyOp34
 70
     1
102
RTVSPropertyOp35
 70
     1
102
RTVSPropertyOp36
 70
     1
102
RTVSPropertyOp37
 70
     1
102
RTVSPropertyOp38
 70
     1
102
RTVSPropertyOp39
 70
     1
102
RTVSPropertyOp40
 70
     1
102
RTVSPropertyOp41
 70
     1
102
RTVSPropertyOp42
 70
     1
102
RTVSPropertyOp43
 70
     1
102
RTVSPropertyOp44
 70
     1
102
RTVSPropertyOp45
 70
     1
102
RTVSPropertyOp46
 70
     1
102
RTVSPropertyOp47
 70
     1
102
RTVSPropertyOp48
 70
     1
102
RTVSPropertyOp49
 70
     1
102
RTVSPropertyOp50
 70
     1
102
RTVSPropertyOp51
 70
     0
102
RTVSPropertyOp52
 70
     0
102
RTVSPropertyOp53
 70
     1
102
RTVSPropertyOp54
 70
     1
102
RTVSPropertyOp55
 70
     1
102
RTVSPropertyOp56
 70
     1
102
RTVSPropertyOp57
 70
     1
102
RTVSPropertyOp58
 70
     1
102
RTVSPropertyOp59
 70
     1
102
RTVSPropertyOp60
 70
     1
102
RTVSPropertyOp61
 70
     1
102
RTVSPropertyOp62
 70
     1
  0
XRECORD
  5
46B
102
{ACAD_REACTORS
330
46A
102
}
330
46A
100
AcDbXrecord
280
     1
102
RTVSPost2010Prop28
280
     0
102
RTVSPost2010PropOp28
 70
     1
102
RTVSPost2010Prop29
280
     1
102
RTVSPost2010PropOp29
 70
     1
102
RTVSPost2010Prop30
280
     1
102
RTVSPost2010PropOp30
 70
     1
102
RTVSPost2010Prop31
280
     0
102
RTVSPost2010PropOp31
 70
     1
102
RTVSPost2010Prop32
280
     0
102
RTVSPost2010PropOp32
 70
     1
102
RTVSPost2010Prop33
280
     0
102
RTVSPost2010PropOp33
 70
     1
102
RTVSPost2010Prop34
280
     0
102
RTVSPost2010PropOp34
 70
     1
102
RTVSPost2010Prop35
280
     0
102
RTVSPost2010PropOp35
 70
     1
102
RTVSPost2010Prop36
280
     0
102
RTVSPost2010PropOp36
 70
     1
102
RTVSPost2010Prop37
 90
       50
102
RTVSPost2010PropOp37
 70
     1
102
RTVSPost2010Prop38
140
0.0
102
RTVSPost2010PropOp38
 70
     1
102
RTVSPost2010Prop39
140
1.0
102
RTVSPost2010PropOp39
 70
     1
102
RTVSPost2010Prop40
 90
        0
102
RTVSPost2010PropOp40
 70
     1
102
RTVSPost2010Prop41ColorIndex
 90
       18
102
RTVSPost2010Prop41ColorRGB
 90
        0
102
RTVSPost2010PropOp41
 70
     1
102
RTVSPost2010Prop42
 90
       50
102
RTVSPost2010PropOp42
 70
     1
102
RTVSPost2010Prop43
 90
        3
102
RTVSPost2010PropOp43
 70
     1
102
RTVSPost2010Prop44ColorIndex
 90
        5
102
RTVSPost2010Prop44ColorRGB
 90
      255
102
RTVSPost2010PropOp44
 70
     1
102
RTVSPost2010Prop45
280
     0
102
RTVSPost2010PropOp45
 70
     1
102
RTVSPost2010Prop46
 90
       50
102
RTVSPost2010PropOp46
 70
     1
102
RTVSPost2010Prop47
 90
       50
102
RTVSPost2010PropOp47
 70
     1
102
RTVSPost2010Prop48
 90
       50
102
RTVSPost2010PropOp48
 70
     1
102
RTVSPost2010Prop49
280
     0
102
RTVSPost2010PropOp49
 70
     1
102
RTVSPost2010Prop50
 90
       50
102
RTVSPost2010PropOp50
 70
     1
102
RTVSPost2010Prop51ColorIndex
 90
      256
102
RTVSPost2010Prop51ColorRGB
 90
-16777216
102
RTVSPost2010PropOp51
 70
     0
102
RTVSPost2010Prop52
140
1.0
102
RTVSPost2010PropOp52
 70
     0
102
RTVSPost2010Prop53
 90
        2
102
RTVSPost2010PropOp53
 70
     1
102
RTVSPost2010Prop54
  1
strokes_ogs.tif
102
RTVSPost2010PropOp54
 70
     1
102
RTVSPost2010Prop55
280
     0
102
RTVSPost2010PropOp55
 70
     1
102
RTVSPost2010Prop56
140
1.0
102
RTVSPost2010PropOp56
 70
     1
102
RTVSPost2010Prop57
140
1.0
102
RTVSPost2010PropOp57
 70
     1
102
RTVSPropertyOp0
 70
     1
102
RTVSPropertyOp1
 70
     1
102
RTVSPropertyOp2
 70
     1
102
RTVSPropertyOp3
 70
     1
102
RTVSPropertyOp4
 70
     1
102
RTVSPropertyOp5
 70
     1
102
RTVSPropertyOp6
 70
     1
102
RTVSPropertyOp7
 70
     1
102
RTVSPropertyOp8
 70
     1
102
RTVSPropertyOp9
 70
     1
102
RTVSPropertyOp10
 70
     1
102
RTVSPropertyOp11
 70
     1
102
RTVSPropertyOp12
 70
     1
102
RTVSPropertyOp13
 70
     1
102
RTVSPropertyOp14
 70
     1
102
RTVSPropertyOp15
 70
     1
102
RTVSPropertyOp16
 70
     1
102
RTVSPropertyOp17
 70
     1
102
RTVSPropertyOp18
 70
     1
102
RTVSPropertyOp19
 70
     1
102
RTVSPropertyOp20
 70
     1
102
RTVSPropertyOp21
 70
     1
102
RTVSPropertyOp22
 70
     1
102
RTVSPropertyOp23
 70
     1
102
RTVSPropertyOp24
 70
     1
102
RTVSPropertyOp25
 70
     1
102
RTVSPropertyOp26
 70
     1
102
RTVSPropertyOp27
 70
     1
102
RTVSPropertyOp28
 70
     1
102
RTVSPropertyOp29
 70
     1
102
RTVSPropertyOp30
 70
     1
102
RTVSPropertyOp31
 70
     1
102
RTVSPropertyOp32
 70
     1
102
RTVSPropertyOp33
 70
     1
102
RTVSPropertyOp34
 70
     1
102
RTVSPropertyOp35
 70
     1
102
RTVSPropertyOp36
 70
     1
102
RTVSPropertyOp37
 70
     1
102
RTVSPropertyOp38
 70
     1
102
RTVSPropertyOp39
 70
     1
102
RTVSPropertyOp40
 70
     1
102
RTVSPropertyOp41
 70
     1
102
RTVSPropertyOp42
 70
     1
102
RTVSPropertyOp43
 70
     1
102
RTVSPropertyOp44
 70
     1
102
RTVSPropertyOp45
 70
     1
102
RTVSPropertyOp46
 70
     1
102
RTVSPropertyOp47
 70
     1
102
RTVSPropertyOp48
 70
     1
102
RTVSPropertyOp49
 70
     1
102
RTVSPropertyOp50
 70
     1
102
RTVSPropertyOp51
 70
     0
102
RTVSPropertyOp52
 70
     0
102
RTVSPropertyOp53
 70
     1
102
RTVSPropertyOp54
 70
     1
102
RTVSPropertyOp55
 70
     1
102
RTVSPropertyOp56
 70
     1
102
RTVSPropertyOp57
 70
     1
102
RTVSPropertyOp58
 70
     1
102
RTVSPropertyOp59
 70
     1
102
RTVSPropertyOp60
 70
     1
102
RTVSPropertyOp61
 70
     1
102
RTVSPropertyOp62
 70
     1
  0
XRECORD
  5
465
102
{ACAD_REACTORS
330
464
102
}
330
464
100
AcDbXrecord
280
     1
102
RTVSPost2010Prop28
280
     0
102
RTVSPost2010PropOp28
 70
     1
102
RTVSPost2010Prop29
280
     1
102
RTVSPost2010PropOp29
 70
     1
102
RTVSPost2010Prop30
280
     1
102
RTVSPost2010PropOp30
 70
     1
102
RTVSPost2010Prop31
280
     0
102
RTVSPost2010PropOp31
 70
     1
102
RTVSPost2010Prop32
280
     0
102
RTVSPost2010PropOp32
 70
     1
102
RTVSPost2010Prop33
280
     0
102
RTVSPost2010PropOp33
 70
     1
102
RTVSPost2010Prop34
280
     0
102
RTVSPost2010PropOp34
 70
     1
102
RTVSPost2010Prop35
280
     0
102
RTVSPost2010PropOp35
 70
     1
102
RTVSPost2010Prop36
280
     0
102
RTVSPost2010PropOp36
 70
     1
102
RTVSPost2010Prop37
 90
       50
102
RTVSPost2010PropOp37
 70
     1
102
RTVSPost2010Prop38
140
0.0
102
RTVSPost2010PropOp38
 70
     1
102
RTVSPost2010Prop39
140
1.0
102
RTVSPost2010PropOp39
 70
     1
102
RTVSPost2010Prop40
 90
        0
102
RTVSPost2010PropOp40
 70
     1
102
RTVSPost2010Prop41ColorIndex
 90
       18
102
RTVSPost2010Prop41ColorRGB
 90
        0
102
RTVSPost2010PropOp41
 70
     1
102
RTVSPost2010Prop42
 90
       50
102
RTVSPost2010PropOp42
 70
     1
102
RTVSPost2010Prop43
 90
        3
102
RTVSPost2010PropOp43
 70
     1
102
RTVSPost2010Prop44ColorIndex
 90
        5
102
RTVSPost2010Prop44ColorRGB
 90
      255
102
RTVSPost2010PropOp44
 70
     1
102
RTVSPost2010Prop45
280
     0
102
RTVSPost2010PropOp45
 70
     1
102
RTVSPost2010Prop46
 90
       50
102
RTVSPost2010PropOp46
 70
     1
102
RTVSPost2010Prop47
 90
       50
102
RTVSPost2010PropOp47
 70
     1
102
RTVSPost2010Prop48
 90
       50
102
RTVSPost2010PropOp48
 70
     1
102
RTVSPost2010Prop49
280
     0
102
RTVSPost2010PropOp49
 70
     1
102
RTVSPost2010Prop50
 90
       50
102
RTVSPost2010PropOp50
 70
     1
102
RTVSPost2010Prop51ColorIndex
 90
      256
102
RTVSPost2010Prop51ColorRGB
 90
-16777216
102
RTVSPost2010PropOp51
 70
     0
102
RTVSPost2010Prop52
140
1.0
102
RTVSPost2010PropOp52
 70
     0
102
RTVSPost2010Prop53
 90
        2
102
RTVSPost2010PropOp53
 70
     1
102
RTVSPost2010Prop54
  1
strokes_ogs.tif
102
RTVSPost2010PropOp54
 70
     1
102
RTVSPost2010Prop55
280
     0
102
RTVSPost2010PropOp55
 70
     1
102
RTVSPost2010Prop56
140
1.0
102
RTVSPost2010PropOp56
 70
     1
102
RTVSPost2010Prop57
140
1.0
102
RTVSPost2010PropOp57
 70
     1
102
RTVSPropertyOp0
 70
     1
102
RTVSPropertyOp1
 70
     1
102
RTVSPropertyOp2
 70
     1
102
RTVSPropertyOp3
 70
     1
102
RTVSPropertyOp4
 70
     1
102
RTVSPropertyOp5
 70
     1
102
RTVSPropertyOp6
 70
     1
102
RTVSPropertyOp7
 70
     1
102
RTVSPropertyOp8
 70
     1
102
RTVSPropertyOp9
 70
     1
102
RTVSPropertyOp10
 70
     1
102
RTVSPropertyOp11
 70
     1
102
RTVSPropertyOp12
 70
     1
102
RTVSPropertyOp13
 70
     1
102
RTVSPropertyOp14
 70
     1
102
RTVSPropertyOp15
 70
     1
102
RTVSPropertyOp16
 70
     1
102
RTVSPropertyOp17
 70
     1
102
RTVSPropertyOp18
 70
     1
102
RTVSPropertyOp19
 70
     1
102
RTVSPropertyOp20
 70
     1
102
RTVSPropertyOp21
 70
     1
102
RTVSPropertyOp22
 70
     1
102
RTVSPropertyOp23
 70
     1
102
RTVSPropertyOp24
 70
     1
102
RTVSPropertyOp25
 70
     1
102
RTVSPropertyOp26
 70
     1
102
RTVSPropertyOp27
 70
     1
102
RTVSPropertyOp28
 70
     1
102
RTVSPropertyOp29
 70
     1
102
RTVSPropertyOp30
 70
     1
102
RTVSPropertyOp31
 70
     1
102
RTVSPropertyOp32
 70
     1
102
RTVSPropertyOp33
 70
     1
102
RTVSPropertyOp34
 70
     1
102
RTVSPropertyOp35
 70
     1
102
RTVSPropertyOp36
 70
     1
102
RTVSPropertyOp37
 70
     1
102
RTVSPropertyOp38
 70
     1
102
RTVSPropertyOp39
 70
     1
102
RTVSPropertyOp40
 70
     1
102
RTVSPropertyOp41
 70
     1
102
RTVSPropertyOp42
 70
     1
102
RTVSPropertyOp43
 70
     1
102
RTVSPropertyOp44
 70
     1
102
RTVSPropertyOp45
 70
     1
102
RTVSPropertyOp46
 70
     1
102
RTVSPropertyOp47
 70
     1
102
RTVSPropertyOp48
 70
     1
102
RTVSPropertyOp49
 70
     1
102
RTVSPropertyOp50
 70
     1
102
RTVSPropertyOp51
 70
     0
102
RTVSPropertyOp52
 70
     0
102
RTVSPropertyOp53
 70
     1
102
RTVSPropertyOp54
 70
     1
102
RTVSPropertyOp55
 70
     1
102
RTVSPropertyOp56
 70
     1
102
RTVSPropertyOp57
 70
     1
102
RTVSPropertyOp58
 70
     1
102
RTVSPropertyOp59
 70
     1
102
RTVSPropertyOp60
 70
     1
102
RTVSPropertyOp61
 70
     1
102
RTVSPropertyOp62
 70
     1
  0
XRECORD
  5
467
102
{ACAD_REACTORS
330
466
102
}
330
466
100
AcDbXrecord
280
     1
102
RTVSPost2010Prop28
280
     0
102
RTVSPost2010PropOp28
 70
     1
102
RTVSPost2010Prop29
280
     1
102
RTVSPost2010PropOp29
 70
     1
102
RTVSPost2010Prop30
280
     1
102
RTVSPost2010PropOp30
 70
     1
102
RTVSPost2010Prop31
280
     0
102
RTVSPost2010PropOp31
 70
     1
102
RTVSPost2010Prop32
280
     0
102
RTVSPost2010PropOp32
 70
     1
102
RTVSPost2010Prop33
280
     0
102
RTVSPost2010PropOp33
 70
     1
102
RTVSPost2010Prop34
280
     0
102
RTVSPost2010PropOp34
 70
     1
102
RTVSPost2010Prop35
280
     0
102
RTVSPost2010PropOp35
 70
     1
102
RTVSPost2010Prop36
280
     0
102
RTVSPost2010PropOp36
 70
     1
102
RTVSPost2010Prop37
 90
       50
102
RTVSPost2010PropOp37
 70
     1
102
RTVSPost2010Prop38
140
0.0
102
RTVSPost2010PropOp38
 70
     1
102
RTVSPost2010Prop39
140
1.0
102
RTVSPost2010PropOp39
 70
     1
102
RTVSPost2010Prop40
 90
        0
102
RTVSPost2010PropOp40
 70
     1
102
RTVSPost2010Prop41ColorIndex
 90
       18
102
RTVSPost2010Prop41ColorRGB
 90
        0
102
RTVSPost2010PropOp41
 70
     1
102
RTVSPost2010Prop42
 90
       50
102
RTVSPost2010PropOp42
 70
     1
102
RTVSPost2010Prop43
 90
        3
102
RTVSPost2010PropOp43
 70
     1
102
RTVSPost2010Prop44ColorIndex
 90
        5
102
RTVSPost2010Prop44ColorRGB
 90
      255
102
RTVSPost2010PropOp44
 70
     1
102
RTVSPost2010Prop45
280
     0
102
RTVSPost2010PropOp45
 70
     1
102
RTVSPost2010Prop46
 90
       50
102
RTVSPost2010PropOp46
 70
     1
102
RTVSPost2010Prop47
 90
       50
102
RTVSPost2010PropOp47
 70
     1
102
RTVSPost2010Prop48
 90
       50
102
RTVSPost2010PropOp48
 70
     1
102
RTVSPost2010Prop49
280
     0
102
RTVSPost2010PropOp49
 70
     1
102
RTVSPost2010Prop50
 90
       50
102
RTVSPost2010PropOp50
 70
     1
102
RTVSPost2010Prop51ColorIndex
 90
      256
102
RTVSPost2010Prop51ColorRGB
 90
-16777216
102
RTVSPost2010PropOp51
 70
     0
102
RTVSPost2010Prop52
140
1.0
102
RTVSPost2010PropOp52
 70
     0
102
RTVSPost2010Prop53
 90
        2
102
RTVSPost2010PropOp53
 70
     1
102
RTVSPost2010Prop54
  1
strokes_ogs.tif
102
RTVSPost2010PropOp54
 70
     1
102
RTVSPost2010Prop55
280
     0
102
RTVSPost2010PropOp55
 70
     1
102
RTVSPost2010Prop56
140
1.0
102
RTVSPost2010PropOp56
 70
     1
102
RTVSPost2010Prop57
140
1.0
102
RTVSPost2010PropOp57
 70
     1
102
RTVSPropertyOp0
 70
     1
102
RTVSPropertyOp1
 70
     1
102
RTVSPropertyOp2
 70
     1
102
RTVSPropertyOp3
 70
     1
102
RTVSPropertyOp4
 70
     1
102
RTVSPropertyOp5
 70
     1
102
RTVSPropertyOp6
 70
     1
102
RTVSPropertyOp7
 70
     1
102
RTVSPropertyOp8
 70
     1
102
RTVSPropertyOp9
 70
     1
102
RTVSPropertyOp10
 70
     1
102
RTVSPropertyOp11
 70
     1
102
RTVSPropertyOp12
 70
     1
102
RTVSPropertyOp13
 70
     1
102
RTVSPropertyOp14
 70
     1
102
RTVSPropertyOp15
 70
     1
102
RTVSPropertyOp16
 70
     1
102
RTVSPropertyOp17
 70
     1
102
RTVSPropertyOp18
 70
     1
102
RTVSPropertyOp19
 70
     1
102
RTVSPropertyOp20
 70
     1
102
RTVSPropertyOp21
 70
     1
102
RTVSPropertyOp22
 70
     1
102
RTVSPropertyOp23
 70
     1
102
RTVSPropertyOp24
 70
     1
102
RTVSPropertyOp25
 70
     1
102
RTVSPropertyOp26
 70
     1
102
RTVSPropertyOp27
 70
     1
102
RTVSPropertyOp28
 70
     1
102
RTVSPropertyOp29
 70
     1
102
RTVSPropertyOp30
 70
     1
102
RTVSPropertyOp31
 70
     1
102
RTVSPropertyOp32
 70
     1
102
RTVSPropertyOp33
 70
     1
102
RTVSPropertyOp34
 70
     1
102
RTVSPropertyOp35
 70
     1
102
RTVSPropertyOp36
 70
     1
102
RTVSPropertyOp37
 70
     1
102
RTVSPropertyOp38
 70
     1
102
RTVSPropertyOp39
 70
     1
102
RTVSPropertyOp40
 70
     1
102
RTVSPropertyOp41
 70
     1
102
RTVSPropertyOp42
 70
     1
102
RTVSPropertyOp43
 70
     1
102
RTVSPropertyOp44
 70
     1
102
RTVSPropertyOp45
 70
     1
102
RTVSPropertyOp46
 70
     1
102
RTVSPropertyOp47
 70
     1
102
RTVSPropertyOp48
 70
     1
102
RTVSPropertyOp49
 70
     1
102
RTVSPropertyOp50
 70
     1
102
RTVSPropertyOp51
 70
     0
102
RTVSPropertyOp52
 70
     0
102
RTVSPropertyOp53
 70
     1
102
RTVSPropertyOp54
 70
     1
102
RTVSPropertyOp55
 70
     1
102
RTVSPropertyOp56
 70
     1
102
RTVSPropertyOp57
 70
     1
102
RTVSPropertyOp58
 70
     1
102
RTVSPropertyOp59
 70
     1
102
RTVSPropertyOp60
 70
     1
102
RTVSPropertyOp61
 70
     1
102
RTVSPropertyOp62
 70
     1
  0
XRECORD
  5
45D
102
{ACAD_REACTORS
330
45C
102
}
330
45C
100
AcDbXrecord
280
     1
102
RTVSPost2010Prop28
280
     0
102
RTVSPost2010PropOp28
 70
     1
102
RTVSPost2010Prop29
280
     1
102
RTVSPost2010PropOp29
 70
     1
102
RTVSPost2010Prop30
280
     1
102
RTVSPost2010PropOp30
 70
     1
102
RTVSPost2010Prop31
280
     0
102
RTVSPost2010PropOp31
 70
     1
102
RTVSPost2010Prop32
280
     0
102
RTVSPost2010PropOp32
 70
     1
102
RTVSPost2010Prop33
280
     0
102
RTVSPost2010PropOp33
 70
     1
102
RTVSPost2010Prop34
280
     0
102
RTVSPost2010PropOp34
 70
     1
102
RTVSPost2010Prop35
280
     0
102
RTVSPost2010PropOp35
 70
     1
102
RTVSPost2010Prop36
280
     0
102
RTVSPost2010PropOp36
 70
     1
102
RTVSPost2010Prop37
 90
       50
102
RTVSPost2010PropOp37
 70
     1
102
RTVSPost2010Prop38
140
0.0
102
RTVSPost2010PropOp38
 70
     1
102
RTVSPost2010Prop39
140
1.0
102
RTVSPost2010PropOp39
 70
     1
102
RTVSPost2010Prop40
 90
        0
102
RTVSPost2010PropOp40
 70
     1
102
RTVSPost2010Prop41ColorIndex
 90
       18
102
RTVSPost2010Prop41ColorRGB
 90
        0
102
RTVSPost2010PropOp41
 70
     1
102
RTVSPost2010Prop42
 90
       50
102
RTVSPost2010PropOp42
 70
     1
102
RTVSPost2010Prop43
 90
        3
102
RTVSPost2010PropOp43
 70
     1
102
RTVSPost2010Prop44ColorIndex
 90
        5
102
RTVSPost2010Prop44ColorRGB
 90
      255
102
RTVSPost2010PropOp44
 70
     1
102
RTVSPost2010Prop45
280
     0
102
RTVSPost2010PropOp45
 70
     1
102
RTVSPost2010Prop46
 90
       50
102
RTVSPost2010PropOp46
 70
     1
102
RTVSPost2010Prop47
 90
       50
102
RTVSPost2010PropOp47
 70
     1
102
RTVSPost2010Prop48
 90
       50
102
RTVSPost2010PropOp48
 70
     1
102
RTVSPost2010Prop49
280
     0
102
RTVSPost2010PropOp49
 70
     1
102
RTVSPost2010Prop50
 90
       50
102
RTVSPost2010PropOp50
 70
     1
102
RTVSPost2010Prop51ColorIndex
 90
      256
102
RTVSPost2010Prop51ColorRGB
 90
-16777216
102
RTVSPost2010PropOp51
 70
     0
102
RTVSPost2010Prop52
140
1.0
102
RTVSPost2010PropOp52
 70
     0
102
RTVSPost2010Prop53
 90
        2
102
RTVSPost2010PropOp53
 70
     1
102
RTVSPost2010Prop54
  1
strokes_ogs.tif
102
RTVSPost2010PropOp54
 70
     1
102
RTVSPost2010Prop55
280
     0
102
RTVSPost2010PropOp55
 70
     1
102
RTVSPost2010Prop56
140
1.0
102
RTVSPost2010PropOp56
 70
     1
102
RTVSPost2010Prop57
140
1.0
102
RTVSPost2010PropOp57
 70
     1
102
RTVSPropertyOp0
 70
     1
102
RTVSPropertyOp1
 70
     1
102
RTVSPropertyOp2
 70
     1
102
RTVSPropertyOp3
 70
     1
102
RTVSPropertyOp4
 70
     1
102
RTVSPropertyOp5
 70
     1
102
RTVSPropertyOp6
 70
     1
102
RTVSPropertyOp7
 70
     1
102
RTVSPropertyOp8
 70
     1
102
RTVSPropertyOp9
 70
     1
102
RTVSPropertyOp10
 70
     1
102
RTVSPropertyOp11
 70
     1
102
RTVSPropertyOp12
 70
     1
102
RTVSPropertyOp13
 70
     1
102
RTVSPropertyOp14
 70
     1
102
RTVSPropertyOp15
 70
     1
102
RTVSPropertyOp16
 70
     1
102
RTVSPropertyOp17
 70
     1
102
RTVSPropertyOp18
 70
     1
102
RTVSPropertyOp19
 70
     1
102
RTVSPropertyOp20
 70
     1
102
RTVSPropertyOp21
 70
     1
102
RTVSPropertyOp22
 70
     1
102
RTVSPropertyOp23
 70
     1
102
RTVSPropertyOp24
 70
     1
102
RTVSPropertyOp25
 70
     1
102
RTVSPropertyOp26
 70
     1
102
RTVSPropertyOp27
 70
     1
102
RTVSPropertyOp28
 70
     1
102
RTVSPropertyOp29
 70
     1
102
RTVSPropertyOp30
 70
     1
102
RTVSPropertyOp31
 70
     1
102
RTVSPropertyOp32
 70
     1
102
RTVSPropertyOp33
 70
     1
102
RTVSPropertyOp34
 70
     1
102
RTVSPropertyOp35
 70
     1
102
RTVSPropertyOp36
 70
     1
102
RTVSPropertyOp37
 70
     1
102
RTVSPropertyOp38
 70
     1
102
RTVSPropertyOp39
 70
     1
102
RTVSPropertyOp40
 70
     1
102
RTVSPropertyOp41
 70
     1
102
RTVSPropertyOp42
 70
     1
102
RTVSPropertyOp43
 70
     1
102
RTVSPropertyOp44
 70
     1
102
RTVSPropertyOp45
 70
     1
102
RTVSPropertyOp46
 70
     1
102
RTVSPropertyOp47
 70
     1
102
RTVSPropertyOp48
 70
     1
102
RTVSPropertyOp49
 70
     1
102
RTVSPropertyOp50
 70
     1
102
RTVSPropertyOp51
 70
     0
102
RTVSPropertyOp52
 70
     0
102
RTVSPropertyOp53
 70
     1
102
RTVSPropertyOp54
 70
     1
102
RTVSPropertyOp55
 70
     1
102
RTVSPropertyOp56
 70
     1
102
RTVSPropertyOp57
 70
     1
102
RTVSPropertyOp58
 70
     1
102
RTVSPropertyOp59
 70
     1
102
RTVSPropertyOp60
 70
     1
102
RTVSPropertyOp61
 70
     1
102
RTVSPropertyOp62
 70
     1
  0
XRECORD
  5
451
102
{ACAD_REACTORS
330
450
102
}
330
450
100
AcDbXrecord
280
     1
102
RTVSPost2010Prop28
280
     0
102
RTVSPost2010PropOp28
 70
     1
102
RTVSPost2010Prop29
280
     1
102
RTVSPost2010PropOp29
 70
     1
102
RTVSPost2010Prop30
280
     1
102
RTVSPost2010PropOp30
 70
     1
102
RTVSPost2010Prop31
280
     0
102
RTVSPost2010PropOp31
 70
     1
102
RTVSPost2010Prop32
280
     0
102
RTVSPost2010PropOp32
 70
     1
102
RTVSPost2010Prop33
280
     0
102
RTVSPost2010PropOp33
 70
     1
102
RTVSPost2010Prop34
280
     0
102
RTVSPost2010PropOp34
 70
     1
102
RTVSPost2010Prop35
280
     0
102
RTVSPost2010PropOp35
 70
     1
102
RTVSPost2010Prop36
280
     0
102
RTVSPost2010PropOp36
 70
     1
102
RTVSPost2010Prop37
 90
       50
102
RTVSPost2010PropOp37
 70
     1
102
RTVSPost2010Prop38
140
0.0
102
RTVSPost2010PropOp38
 70
     1
102
RTVSPost2010Prop39
140
1.0
102
RTVSPost2010PropOp39
 70
     1
102
RTVSPost2010Prop40
 90
        0
102
RTVSPost2010PropOp40
 70
     1
102
RTVSPost2010Prop41ColorIndex
 90
       18
102
RTVSPost2010Prop41ColorRGB
 90
        0
102
RTVSPost2010PropOp41
 70
     1
102
RTVSPost2010Prop42
 90
       50
102
RTVSPost2010PropOp42
 70
     1
102
RTVSPost2010Prop43
 90
        3
102
RTVSPost2010PropOp43
 70
     1
102
RTVSPost2010Prop44ColorIndex
 90
        5
102
RTVSPost2010Prop44ColorRGB
 90
      255
102
RTVSPost2010PropOp44
 70
     1
102
RTVSPost2010Prop45
280
     0
102
RTVSPost2010PropOp45
 70
     1
102
RTVSPost2010Prop46
 90
       50
102
RTVSPost2010PropOp46
 70
     1
102
RTVSPost2010Prop47
 90
       50
102
RTVSPost2010PropOp47
 70
     1
102
RTVSPost2010Prop48
 90
       50
102
RTVSPost2010PropOp48
 70
     1
102
RTVSPost2010Prop49
280
     0
102
RTVSPost2010PropOp49
 70
     1
102
RTVSPost2010Prop50
 90
       50
102
RTVSPost2010PropOp50
 70
     1
102
RTVSPost2010Prop51ColorIndex
 90
      256
102
RTVSPost2010Prop51ColorRGB
 90
-16777216
102
RTVSPost2010PropOp51
 70
     0
102
RTVSPost2010Prop52
140
1.0
102
RTVSPost2010PropOp52
 70
     0
102
RTVSPost2010Prop53
 90
        2
102
RTVSPost2010PropOp53
 70
     1
102
RTVSPost2010Prop54
  1
strokes_ogs.tif
102
RTVSPost2010PropOp54
 70
     1
102
RTVSPost2010Prop55
280
     0
102
RTVSPost2010PropOp55
 70
     1
102
RTVSPost2010Prop56
140
1.0
102
RTVSPost2010PropOp56
 70
     1
102
RTVSPost2010Prop57
140
1.0
102
RTVSPost2010PropOp57
 70
     1
102
RTVSPropertyOp0
 70
     1
102
RTVSPropertyOp1
 70
     1
102
RTVSPropertyOp2
 70
     1
102
RTVSPropertyOp3
 70
     1
102
RTVSPropertyOp4
 70
     1
102
RTVSPropertyOp5
 70
     1
102
RTVSPropertyOp6
 70
     1
102
RTVSPropertyOp7
 70
     1
102
RTVSPropertyOp8
 70
     1
102
RTVSPropertyOp9
 70
     1
102
RTVSPropertyOp10
 70
     1
102
RTVSPropertyOp11
 70
     1
102
RTVSPropertyOp12
 70
     1
102
RTVSPropertyOp13
 70
     1
102
RTVSPropertyOp14
 70
     1
102
RTVSPropertyOp15
 70
     1
102
RTVSPropertyOp16
 70
     1
102
RTVSPropertyOp17
 70
     1
102
RTVSPropertyOp18
 70
     1
102
RTVSPropertyOp19
 70
     1
102
RTVSPropertyOp20
 70
     1
102
RTVSPropertyOp21
 70
     1
102
RTVSPropertyOp22
 70
     1
102
RTVSPropertyOp23
 70
     1
102
RTVSPropertyOp24
 70
     1
102
RTVSPropertyOp25
 70
     1
102
RTVSPropertyOp26
 70
     1
102
RTVSPropertyOp27
 70
     1
102
RTVSPropertyOp28
 70
     1
102
RTVSPropertyOp29
 70
     1
102
RTVSPropertyOp30
 70
     1
102
RTVSPropertyOp31
 70
     1
102
RTVSPropertyOp32
 70
     1
102
RTVSPropertyOp33
 70
     1
102
RTVSPropertyOp34
 70
     1
102
RTVSPropertyOp35
 70
     1
102
RTVSPropertyOp36
 70
     1
102
RTVSPropertyOp37
 70
     1
102
RTVSPropertyOp38
 70
     1
102
RTVSPropertyOp39
 70
     1
102
RTVSPropertyOp40
 70
     1
102
RTVSPropertyOp41
 70
     1
102
RTVSPropertyOp42
 70
     1
102
RTVSPropertyOp43
 70
     1
102
RTVSPropertyOp44
 70
     1
102
RTVSPropertyOp45
 70
     1
102
RTVSPropertyOp46
 70
     1
102
RTVSPropertyOp47
 70
     1
102
RTVSPropertyOp48
 70
     1
102
RTVSPropertyOp49
 70
     1
102
RTVSPropertyOp50
 70
     1
102
RTVSPropertyOp51
 70
     0
102
RTVSPropertyOp52
 70
     0
102
RTVSPropertyOp53
 70
     1
102
RTVSPropertyOp54
 70
     1
102
RTVSPropertyOp55
 70
     1
102
RTVSPropertyOp56
 70
     1
102
RTVSPropertyOp57
 70
     1
102
RTVSPropertyOp58
 70
     1
102
RTVSPropertyOp59
 70
     1
102
RTVSPropertyOp60
 70
     1
102
RTVSPropertyOp61
 70
     1
102
RTVSPropertyOp62
 70
     1
  0
XRECORD
  5
469
102
{ACAD_REACTORS
330
468
102
}
330
468
100
AcDbXrecord
280
     1
102
RTVSPost2010Prop28
280
     0
102
RTVSPost2010PropOp28
 70
     1
102
RTVSPost2010Prop29
280
     1
102
RTVSPost2010PropOp29
 70
     1
102
RTVSPost2010Prop30
280
     1
102
RTVSPost2010PropOp30
 70
     1
102
RTVSPost2010Prop31
280
     0
102
RTVSPost2010PropOp31
 70
     1
102
RTVSPost2010Prop32
280
     0
102
RTVSPost2010PropOp32
 70
     1
102
RTVSPost2010Prop33
280
     0
102
RTVSPost2010PropOp33
 70
     1
102
RTVSPost2010Prop34
280
     0
102
RTVSPost2010PropOp34
 70
     1
102
RTVSPost2010Prop35
280
     0
102
RTVSPost2010PropOp35
 70
     1
102
RTVSPost2010Prop36
280
     0
102
RTVSPost2010PropOp36
 70
     1
102
RTVSPost2010Prop37
 90
       50
102
RTVSPost2010PropOp37
 70
     1
102
RTVSPost2010Prop38
140
0.0
102
RTVSPost2010PropOp38
 70
     1
102
RTVSPost2010Prop39
140
1.0
102
RTVSPost2010PropOp39
 70
     1
102
RTVSPost2010Prop40
 90
        0
102
RTVSPost2010PropOp40
 70
     1
102
RTVSPost2010Prop41ColorIndex
 90
       18
102
RTVSPost2010Prop41ColorRGB
 90
        0
102
RTVSPost2010PropOp41
 70
     1
102
RTVSPost2010Prop42
 90
       50
102
RTVSPost2010PropOp42
 70
     1
102
RTVSPost2010Prop43
 90
        3
102
RTVSPost2010PropOp43
 70
     1
102
RTVSPost2010Prop44ColorIndex
 90
        5
102
RTVSPost2010Prop44ColorRGB
 90
      255
102
RTVSPost2010PropOp44
 70
     1
102
RTVSPost2010Prop45
280
     0
102
RTVSPost2010PropOp45
 70
     1
102
RTVSPost2010Prop46
 90
       50
102
RTVSPost2010PropOp46
 70
     1
102
RTVSPost2010Prop47
 90
       50
102
RTVSPost2010PropOp47
 70
     1
102
RTVSPost2010Prop48
 90
       50
102
RTVSPost2010PropOp48
 70
     1
102
RTVSPost2010Prop49
280
     0
102
RTVSPost2010PropOp49
 70
     1
102
RTVSPost2010Prop50
 90
       50
102
RTVSPost2010PropOp50
 70
     1
102
RTVSPost2010Prop51ColorIndex
 90
      256
102
RTVSPost2010Prop51ColorRGB
 90
-16777216
102
RTVSPost2010PropOp51
 70
     0
102
RTVSPost2010Prop52
140
1.0
102
RTVSPost2010PropOp52
 70
     0
102
RTVSPost2010Prop53
 90
        2
102
RTVSPost2010PropOp53
 70
     1
102
RTVSPost2010Prop54
  1
strokes_ogs.tif
102
RTVSPost2010PropOp54
 70
     1
102
RTVSPost2010Prop55
280
     0
102
RTVSPost2010PropOp55
 70
     1
102
RTVSPost2010Prop56
140
1.0
102
RTVSPost2010PropOp56
 70
     1
102
RTVSPost2010Prop57
140
1.0
102
RTVSPost2010PropOp57
 70
     1
102
RTVSPropertyOp0
 70
     1
102
RTVSPropertyOp1
 70
     1
102
RTVSPropertyOp2
 70
     1
102
RTVSPropertyOp3
 70
     1
102
RTVSPropertyOp4
 70
     1
102
RTVSPropertyOp5
 70
     1
102
RTVSPropertyOp6
 70
     1
102
RTVSPropertyOp7
 70
     1
102
RTVSPropertyOp8
 70
     1
102
RTVSPropertyOp9
 70
     1
102
RTVSPropertyOp10
 70
     1
102
RTVSPropertyOp11
 70
     1
102
RTVSPropertyOp12
 70
     1
102
RTVSPropertyOp13
 70
     1
102
RTVSPropertyOp14
 70
     1
102
RTVSPropertyOp15
 70
     1
102
RTVSPropertyOp16
 70
     1
102
RTVSPropertyOp17
 70
     1
102
RTVSPropertyOp18
 70
     1
102
RTVSPropertyOp19
 70
     1
102
RTVSPropertyOp20
 70
     1
102
RTVSPropertyOp21
 70
     1
102
RTVSPropertyOp22
 70
     1
102
RTVSPropertyOp23
 70
     1
102
RTVSPropertyOp24
 70
     1
102
RTVSPropertyOp25
 70
     1
102
RTVSPropertyOp26
 70
     1
102
RTVSPropertyOp27
 70
     1
102
RTVSPropertyOp28
 70
     1
102
RTVSPropertyOp29
 70
     1
102
RTVSPropertyOp30
 70
     1
102
RTVSPropertyOp31
 70
     1
102
RTVSPropertyOp32
 70
     1
102
RTVSPropertyOp33
 70
     1
102
RTVSPropertyOp34
 70
     1
102
RTVSPropertyOp35
 70
     1
102
RTVSPropertyOp36
 70
     1
102
RTVSPropertyOp37
 70
     1
102
RTVSPropertyOp38
 70
     1
102
RTVSPropertyOp39
 70
     1
102
RTVSPropertyOp40
 70
     1
102
RTVSPropertyOp41
 70
     1
102
RTVSPropertyOp42
 70
     1
102
RTVSPropertyOp43
 70
     1
102
RTVSPropertyOp44
 70
     1
102
RTVSPropertyOp45
 70
     1
102
RTVSPropertyOp46
 70
     1
102
RTVSPropertyOp47
 70
     1
102
RTVSPropertyOp48
 70
     1
102
RTVSPropertyOp49
 70
     1
102
RTVSPropertyOp50
 70
     1
102
RTVSPropertyOp51
 70
     0
102
RTVSPropertyOp52
 70
     0
102
RTVSPropertyOp53
 70
     1
102
RTVSPropertyOp54
 70
     1
102
RTVSPropertyOp55
 70
     1
102
RTVSPropertyOp56
 70
     1
102
RTVSPropertyOp57
 70
     1
102
RTVSPropertyOp58
 70
     1
102
RTVSPropertyOp59
 70
     1
102
RTVSPropertyOp60
 70
     1
102
RTVSPropertyOp61
 70
     1
102
RTVSPropertyOp62
 70
     1
  0
ENDSEC
  0
EOF
